Song name
# A B C D E F G H I J K L M N O P Q R S T U V W X Y Z

Throwdown - Baby Got Back tab

Help us improve GuitareTab! Take a short survey!
Throwdown
Baby Got Back
Tabbed By Xavier

tuning b F# B E G# C# ( a baritone six string guitar. )

Intro/1st guitar:
|-----------------------------------------------------------------|
|-----------------------------------------------------------------|
|-----------------------------------------------------------------|
|-0-0-0-3-1-1-3-1-0-0-0-3-1-1-3-1-0-0-0-3-1-1-3-1-0-0-0-3-1-1-3-1-|
|-0-0-0-3-1-1-3-1-0-0-0-3-1-1-3-1-0-0-0-3-1-1-3-1-0-0-0-3-1-1-3-1-|
|-0-0-0-3-1-1-3-1-0-0-0-3-1-1-3-1-0-0-0-3-1-1-3-1-0-0-0-3-1-1-3-1-|
  . . . . . . . . . . . . . . . . . . . . . . . . . . . . . . . .

Both guitars:
|-----------------------------------------------------------------|
|-----------------------------------------------------------------|
|-----------------------------------------------------------------|
|-0-0-0-3-1-1-3-1-0-0-0-3-1-1-3-1-0-0-0-3-1-1-3-1-0-0-0-3-1-1-3-1-|
|-0-0-0-3-1-1-3-1-0-0-0-3-1-1-3-1-0-0-0-3-1-1-3-1-0-0-0-3-1-1-3-1-|
|-0-0-0-3-1-1-3-1-0-0-0-3-1-1-3-1-0-0-0-3-1-1-3-1-0-0-0-3-1-1-3-1-|
  . . . . . . . . . . . . . . . . . . . . . . . . . . . . . . . .

Verse:
|---------9----------9----------9------------------|
|---------9----------9----------9------------------| x2
|---------7----------7----------7/-----------------|
|-0-0--0-----0-0--0-----0000-0---------------------|
|-0-0--0-----0-0--0-----0000-0---------------------|
|-0-0--0-----0-0--0-----0000-0-----0-0-0-3-1-1-3-1-|
                         ..
|---------9----------9----------9------------|
|---------9----------9----------9------------| 
|---------7----------7----------7/-----------|
|-0-0--0-----0-0--0-----0000-0---------------|
|-0-0--0-----0-0--0-----0000-0---------------|
|-0-0--0-----0-0--0-----0000-0-----0-0-0-3-1-|
                         ..
|---------------|
|---------------| x4
|---------------|
|-0--0-3-1--3-1-|
|-0--0-3-1--3-1-|
|-0--0-3-1--3-1-|

|---------9----------9----------9------------------|
|---------9----------9----------9------------------| x2
|---------7----------7----------7/-----------------|
|-0-0--0-----0-0--0-----0000-0---------------------|
|-0-0--0-----0-0--0-----0000-0---------------------|
|-0-0--0-----0-0--0-----0000-0-----0-0-0-3-1-1-3-1-|
                         ..
|---------------|
|---------------|
|---------------|
|-0-----0-----0-|
|-0-----0-----0-|
|-0-----0-----0-|

|----------------------------------|
|----------------------------------|
|-----------------7-7-7-7-77777777-|
|-0-0-0-0-0-0-0-0-7-7-7-7-77777777-|
|-0-0-0-0-0-0-0-0-5-5-5-5-55555555-|
|-0-0-0-0-0-0-0-0------------------|
  . . . . . . . .

Chorus:
|-----------------|
|-----------------| x8
|-----------------|
|-0-0-0-3-1---3-1-|
|-0-0-0-3-1---3-1-|
|-0-0-0-3-1---3-1-|
  . . .

Verse:
|-------------|
|-------------| x2
|-7/-----7-7/-|
|-7/-----7-7/-|
|-5/-----5-5/-|
|-------------|

|------------------|
|------------------| 
|-7/-----7-7-------|
|-7/-----7-7--0--0-|
|-5/-----5-5--0--0-|
|-------------0--0-|
         .    .  .

|-------------|
|-------------|
|-7/-----7-7/-|
|-7/-----7-7/-|
|-5/-----5-5/-|
|-------------|

|---------9----------9----------9------------------|
|---------9----------9----------9------------------| x2
|---------7----------7----------7/-----------------|
|-0-0--0-----0-0--0-----0000-0---------------------|
|-0-0--0-----0-0--0-----0000-0---------------------|
|-0-0--0-----0-0--0-----0000-0-----0-0-0-3-1-1-3-1-|
                         ..
|-------------|
|-------------| x2
|-7/-----7-7/-|
|-7/-----7-7/-|
|-5/-----5-5/-|
|-------------|

|---------9----------9----------9------------------|
|---------9----------9----------9------------------| 
|---------7----------7----------7/-----------------|
|-0-0--0-----0-0--0-----0000-0---------------------|
|-0-0--0-----0-0--0-----0000-0---------------------|
|-0-0--0-----0-0--0-----0000-0-----0-0-0-3-1-1-3-1-|
                         ..

|---------9----------9-|
|---------9----------9-| 
|---------7----------7-|
|-0-0--0-----0-0--0----|
|-0-0--0-----0-0--0----|
|-0-0--0-----0-0--0----|

|---------------|
|---------------|
|---------------|
|-0-----0-----0-|
|-0-----0-----0-|
|-0-----0-----0-|

|----------------------------------|
|----------------------------------|
|-----------------7-7-7-7-77777777-|
|-0-0-0-0-0-0-0-0-7-7-7-7-77777777-|
|-0-0-0-0-0-0-0-0-5-5-5-5-55555555-|
|-0-0-0-0-0-0-0-0------------------|
  . . . . . . . .

Chorus:        
|-----------------|
|-----------------| x4
|-----------------|
|-0-0-0-3-1---3-1-|
|-0-0-0-3-1---3-1-|
|-0-0-0-3-1---3-1-|
  . . .

Bridge:
|---------------------------------------------------|
|--999999999999999910101010101010101010101010101010-| cont.
|--7777777777777777-7-7-7-7-7-7-7-7-7-7-7-7-7-7-7-7-|
|-0-------------------------------------------------|
|-0-------------------------------------------------|
|-0-------------------------------------------------|

|--------------------------------------------------|
|-111111111111111111111111111111119999999999999999-| x2
|--8-8-8-8-8-8-8-8-8-8-8-8-8-8-8-86666666666666666-|
|--------------------------------------------------|
|--------------------------------------------------|
|--------------------------------------------------|

Verse: 
|-------------|
|-------------| x2
|-7/-----7-7/-|
|-7/-----7-7/-|
|-5/-----5-5/-|
|-------------|

|-----------------------------|
|-----------------------------|
|-----------------------------|
|-0--0--0-0-1-3-1--0--0--0--0-|
|-0--0--0-0-1-3-1--0--0--0--0-|
|-0--0--0-0-1-3-1--0--0--0--0-|
  .  .  . . . . .  .  .  .  .

|---------------------------------|
|---------------------------------|
|---------------------------------|
|---------------------------------|
|---------------------------------|
|-0-0-0-3-1-1-3-1-0-0-0-3-1-1-3-1-|

|---------9----------9----------9------------------|
|---------9----------9----------9------------------| 
|---------7----------7----------7/-----------------|
|-0-0--0-----0-0--0-----0000-0---------------------|
|-0-0--0-----0-0--0-----0000-0---------------------|
|-0-0--0-----0-0--0-----0000-0-----0-0-0-3-1-1-3-1-|
                         ..
|-------------|
|-------------| x4
|-7/-----7-7/-|
|-7/-----7-7/-|
|-5/-----5-5/-|
|-------------|

|---------9----------9----------9------------------|
|---------9----------9----------9------------------| 
|---------7----------7----------7/-----------------|
|-0-0--0-----0-0--0-----0000-0---------------------|
|-0-0--0-----0-0--0-----0000-0---------------------|
|-0-0--0-----0-0--0-----0000-0-----0-0-0-3-1-1-3-1-|
                         ..
|---------9----------9-|
|---------9----------9-| 
|---------7----------7-|
|-0-0--0-----0-0--0----|
|-0-0--0-----0-0--0----|
|-0-0--0-----0-0--0----|

|----|
|----|
|----|
|-00-|
|-00-|
|-00-|
  .     

Chorus:
|-----------------|
|-----------------| x8
|-----------------|
|-0-0-0-3-1---3-1-|
|-0-0-0-3-1---3-1-|
|-0-0-0-3-1---3-1-|
  . . .

Breakdown/1st guitar:
|---------------------------------|
|---------------------------------| x2
|---------------------------------|
|-0-0---0-0-0---0-0-0---0-0-1-3-1-|
|-0-0---0-0-0---0-0-0---0-0-1-3-1-|
|-0-0---0-0-0---0-0-0---0-0-1-3-1-|
  . .   . . .   . . .   .

|---------------------------------|
|---------------------------------| x10
|---------------------------------|
|-0-0---0-0-0---0-0-0---0-0-1-3-1-|
|-0-0---0-0-0---0-0-0---0-0-1-3-1-|
|-0-0---0-0-0---0-0-0---0-0-1-3-1-|
  . .   . . .   . . .   .

|---||---||---|
|---||---||---|
|---||-7-||---|
|-0-||-7-||-0-|
|-0-||-5-||-0-| 
|-0-||---||-0-|

email corrections to me at (xburningthepastx@yahoo.com)!!

Related for Baby Got Back tab