Song name
# A B C D E F G H I J K L M N O P Q R S T U V W X Y Z

Tomorrows Bad Seeds - Rhyme And Reason tab

-----------------------------------------------------------------------------
                     Rhyme and Reason - Tomorrows Bad Seeds
-----------------------------------------------------------------------------
Tabbed by: j.casquejo
Email: geehanski@yahoo.com


Intro: Rhythm guitar
    v    ^ v ^  v            v  ^ v ^  v
e|-------2-x-x-------2h3p2------5-x-x--------------|
B|--2h3--3-x-x--2h3-------3--5--5-x-x--3---3h5p3---|
G|--2h4--4-x-x--2h4----------6--6-x-x--4--------4--|
D|--2h4---------2h4----------7---------5-----------|
A|--2----------------------------------------------|
E|---------------------------5---------3--3--------|

    v    ^ v ^  v            pm....
e|-------2-x-x-------2h3p2-------------------------|
B|--2h3--3-x-x--2h3-------3------------------------|
G|--2h4--4-x-x--2h4--------------------------------|
D|--2h4---------2h4----------7-7-7-7--5------------|
A|--2------------------------7-7-7-7--5------------|
E|---------------------------5-5-5-5--3------------|

Verse/Chorus: Bm, A, G

Solo: Lead guitar
e|--10--10-10-7--7-7-7----------------------------------------------|
B|---------------------10--10-10-10-7---7-7-7-----------------------|
G|--------------------------------------------9--9-9p7---7----------|
D|-----------------------------------------------------9---9-7-7h9~-|
A|------------------------------------------------------------------|
E|------------------------------------------------------------------|

e|---------------------------------------------10-12b14-10h12p10----10--------------|
B|---------------------------------------10-12-------------------12----12----10h12\-|
G|-----7-9-9b11r9p7---7---------7-9-9/11----------------------------------11--------|
D|--/9--------------9---9~---/9-----------------------------------------------------|
A|----------------------------------------------------------------------------------|
E|----------------------------------------------------------------------------------|

e|--19-19-19-19-19-19-17-17-14-14-17-14----14--------|
B|--------------------------------------17----17-14--|
G|---------------------------------------------------|
D|---------------------------------------------------|
A|---------------------------------------------------|
E|---------------------------------------------------|

e|-------------------------------------------|
B|------15-17-17b19r17-15----17b19r17-15-----|
G|--/16----------------------------------16~-|
D|-------------------------------------------|
A|-------------------------------------------|
E|-------------------------------------------|

e|-------------------------------------------------------------|
B|--17-17-17-17-17-17-17-15------------------------------------|
G|---------------------------------16-------16-------16-19-16~-|
D|---------------------------16h19----16h19----16h19-----------|
A|-------------------------------------------------------------|
E|-------------------------------------------------------------|


************************************

| /   slide up
| \   slide down
| h   hammer-on
| p   pull-off
| ~   vibrato
| x   Mute note
| b   Bend
| pb  Pre-bend
| br  Bend release

************************************
Tap to rate this tab
 
# A B C D E F G H I J K L M N O P Q R S T U V W X Y Z