Song name
# A B C D E F G H I J K L M N O P Q R S T U V W X Y Z

Trivium - Built To Fall tab

Band:  Trivium
Song:  Built To Fall
Album: In Waves

Tuning: Drop C# (C#, G#, C#, F#, A#, D#)
(Tune all strings down half a step then drop tune)

I think the solo is correct but I can only make out and tab what I can hear.
Let me know if anything is incorrect guys, any complaint or corrections Iíd be
Glad to hear, Iíll take the criticism :P
Also, please rate :D

Hammer on:    h
Pull off:     p
Slide up:     /
Slide down:   \
Vibrato:      ~~~
Bend up:      BU(?)
Muted Note:   x 
Tapped Note:  T

Guitar 1: Matt Heafy
Guitar 2: Corey Beaulieu
Intro
Guitar 1
|----------------|------------------|
|----------------|------------------|
|----------------|------------------|
|----------------|------------------|
|---8--------4-5-|---10-------7-----|
|-0---0----0-----|-8----8~--5---5~--|

Guitar 2
|----------------|------------------|
|----------------|------------------|
|----------------|------------------|
|----------------|------------------|
|---8------------|------------------|
|-0---0----------|------------------|

Guitar 1
|----------------|------------------|
|----------------|------------------|
|----------------|------------------|
|----------------|------------------|
|---8--------4-5-|---10-------7-----|
|-0---0----0-----|-8----8~--5---5~--|


Guitar 2
|----------------|------------------|
|----------------|------------------|
|----------------|------------------|
|----------------|------------------|
|---8------------|------------7-----|
|-0---0----------|----------5---5~--|

Verse 1
Both Guitars
||----------------|------------------||
|o----------------|------------------o| x6
||----------------|------------------||
||----------------|------------------||
|o---8--------4-5-|---10-------7-----o|
||-0---0----0-----|-8----8~--5---5~--||



Verse 2
Both Guitars
||-----------------|-----------------||
|o-----------------|-----------------o| x4
||-----------------|-----------------||
||-----------------|-----------------||
|o-0-3-0-0-0-0-3-5-|-8-8-8-8-5-5-5-5-o|
||-0-3-0-0-0-0-3-5-|-8-8-8-8-5-5-5-5-||


Pre Chorus
Guitar 1
|---------|---------|---------|-----------------|
|---------|---------|---------|-----------------|
|---------|---------|---------|---------6---7-9-|
|-3-------|---------|-5-------|-7-7-7-7---------|
|-1-------|---------|-3-------|-4-4-4-4-4-x-5-7-|
|---------|---------|---------|-----------x-----|

Guitar 2
|-----------------|-----------------|-----------------|-5-3-------------|
|-6-5-3---6-5-3---|-6-5-3---6-5-3---|-8-6-5---8-6-5---|-----6-5-----3-5-|
|-------3-------3-|-------3-------3-|-------5-------5-|---------6-2-----|
|-----------------|-----------------|-----------------|-----------------|
|-----------------|-----------------|-----------------|-----------------|
|-----------------|-----------------|-----------------|-----------------|

Chorus
Guitar 1
|-----------------|-----------------|-----------------|-----------------|
|-----------------|-----------------|-----------------|-----------------|
|-----------------|-----------------|-----------------|---------6---7-9-|
|-----------------|-3-3-3-3-3-3-3-3-|-----------------|-----------------|
|-0-0-0-0-0-0-0-0-|-1-1-1-1-1-1-1-1-|-5-5-5-5-5-5-5-5-|-7-7-7-7-4-x-5-7-|
|-0-0-0-0-0-0-0-0-|-----------------|-5-5-5-5-5-5-5-5-|-7-7-7-7---x-----|

Guitar 2
|----------------------|----------------------|
|----------------------|----------------------|
|-7-7-7-10-10-10-12-12-|-7-7-7-10-10-10-12-12-|
|----------------------|----------------------|
|-5-5-5--8--8--8-10-10-|-5-5-5--8--8--8-10-10-|
|----------------------|----------------------|

|----------------------|-----------------|
|----------------------|-----------------|
|-7-7-7-10-10-10-12-12-|-9-9-9-9-6---7-9-|
|----------------------|-----------------|
|-5-5-5--8--8--8-10-10-|-7-7-7-7-4-x-5-7-|
|----------------------|-----------x-----|

Guitar 1
|-----------------|-----------------|-----------------|-----------------|
|-----------------|-----------------|-----------------|-----------------|
|-----------------|-----------------|-----------------|---------6---7-9-|
|-----------------|-3-3-3-3-3-3-3-3-|-----------------|-----------------|
|-0-0-0-0-0-0-0-0-|-1-1-1-1-1-1-1-1-|-5-5-5-5-5-5-5-5-|-7-7-7-7-4-x-5-7-|
|-0-0-0-0-0-0-0-0-|-----------------|-5-5-5-5-5-5-5-5-|-7-7-7-7---x-----|

Guitar 2
|----------------------|----------------------|
|----------------------|----------------------|
|-7-7-7-10-10-10-12-12-|-7-7-7-10-10-10-12-12-|
|----------------------|----------------------|
|-5-5-5--8--8--8-10-10-|-5-5-5--8--8--8-10-10-|
|----------------------|----------------------|

|--------------------|-----------------|
|-10-----10-----10---|-----------------|
|----7------7------7-|-9-6---9-6---7-9-|
|------7------7------|-----7-----7-----|
|--------------------|-----------------|
|--------------------|-----------------|

Repeat Verse 1 x2

Repeat Verse 2 x 4

Repeat Pre Chorus

Repeat Chorus

Pre Solo Verse
Guitar 1
||-----------------|-----------------|-----------------|-----------------||
|o-----------------|-----------------|-----------------|-----------------o| x4
||-----------------|-----------------|-----------------|-----------------||
||-3-3-3-3-3-3-3-3-|-3-3-3-3-5-5-5-5-|-7-7-7-7-7-7-7-7-|-7-7-7-7-5-5-5-5-||
|o-1-1-1-1-1-1-1-1-|-1-1-1-1-3-3-3-3-|-5-5-5-5-5-5-5-5-|-5-5-5-5-3-3-3-3-o|
||-----------------|-----------------|-----------------|-----------------||

Guitar 2
||-------------------------|------------------------||
|o-15-------18----17-13-15-|-x-15-------18-17-13-15-o| x3
||----14-------------------|------14----------------||
||-------15----15----------|---------15-------------||
|o-------------------------|------------------------o|
||-------------------------|------------------------||

|-------------------------|------------17-15h17p15-------|
|-15-------18----17-13-15-|-x-15-------------------18-17-|
|----14-------------------|------14----------------------|
|-------15----15----------|---------15-------------------|
|-------------------------|------------------------------|
|-------------------------|------------------------------|

Guitar 1
||-----------------|-----------------|-----------------|-----------------||
|o-----------------|-----------------|-----------------|-----------------o| x3
||-----------------|-----------------|-----------------|-----------------||
||-3-3-3-3-3-3-3-3-|-3-3-3-3-5-5-5-5-|-7-7-7-7-7-7-7-7-|-7-7-7-7-5-5-5-5-||
|o-1-1-1-1-1-1-1-1-|-1-1-1-1-3-3-3-3-|-5-5-5-5-5-5-5-5-|-5-5-5-5-3-3-3-3-o|
||-----------------|-----------------|-----------------|-----------------||

Guitar 1
|-----------------|-----------------|-----------------|-----------------|
|-----------------|-----------------|-----------------|-----------------|
|-----------------|-----------------|-----------------|-----------------|
|-3-3-3-3-3-3-3-3-|-3-3-3-3-5-5-5-5-|-7-7-7-7-7-7-7-7-|-----------------|
|-1-1-1-1-1-1-1-1-|-1-1-1-1-3-3-3-3-|-5-5-5-5-5-5-5-5-|-------------3-3-|
|-----------------|-----------------|-----------------|-0-0-2-2-3-3-----|

Guitar 2
||-------------------------|------------------------||
|o-15-------18----17-13-15-|-x-15-------18-17-13-15-o| x3
||----14-------------------|------14----------------||
||-------15----15----------|---------15-------------||
|o-------------------------|------------------------o|
||-------------------------|------------------------||

|-------------------------|------------17-15h17p15-------|
|-15-------18----17-13-15-|-x-15-------------------18-17-|
|----14-------------------|------14----------------------|
|-------15----15----------|---------15-------------------|
|-------------------------|------------------------------|
|-------------------------|------------------------------|

Solo 1
Guitar 2 (Guitar 1 plays Pre Solo Rhythm)
|----------------8~-|-------------------|----------------13h17p-|
|-------------10----|-11--10-8~~~~---8--|-10---8-8-----15-------|
|-7~~~~-----7-------|-------------------|------------14---------|
|-------------------|-------------------|-----------------------|
|-------------------|-------------------|-----------------------|
|-------------------|-------------------|-----------------------|

|-13--13------------------------------------|
|---15--15p13--15p13------------------------|
|------------14-----14p12p10h12p10----------|
|---------------------------------14p12p10~-|
|-------------------------------------------|
|-------------------------------------------|

|---------------|---------------------|-------------------|--------------------|
|---------------|---------------------|-----------10------|------/15--18-15----|
|---------------|-----------7-10-7----|-7----/10-----10-7-|-10--------------17-|
|---------------|------7-10--------10-|-------------------|--------------------|
|-5~~~~---5-8-5-|-8/10----------------|-------------------|--------------------|
|---------------|---------------------|-------------------|--------------------|

|---------------|
|-15~~~~--------| This last note fades into
|---------------| the second solo
|---------------|
|---------------|
|---------------|

Solo 2
Guitar 1 (Guitar 2 plays Pre Solo Rhythm)
|-------------------------------------|-------------------------|
|-----------------------------10------|-13-15-13-11-11-10-11-10-|
|---------7h9p7----------7h10----10p7-|-------------------------|
|-----7h8-------8p7h8h10--------------|-------------------------|
|-7h8---------------------------------|-------------------------|
|-------------------------------------|-------------------------|

                               T
|----------------------13h17-|-22p17p13---------------------------|
|-/13---11-11--------15------|----------15-----------13-15-13-----|
|------------------14--------|-------------14----14-----------14--|
|----------------15----------|----------------15------------------|
|----------------------------|------------------------------------|
|----------------------------|------------------------------------|

|---------10-------------10-------------10------------10------|
|-----------13p10----------13p10----------13p10---------13p10-|
|-12BU(14)-------12BU(14)-------12BU(14)-------12BU(14)-------|
|-------------------------------------------------------------|
|-------------------------------------------------------------|
|-------------------------------------------------------------|

|---------10-------------10----------------|
|-----------13p10----------13p10-13BU(15)--|
|-12BU(14)-------12BU(14)------------------|
|------------------------------------------|
|------------------------------------------|
|------------------------------------------|

|-10---------12---------13---------|-15---------18BU(20)~~~-----|
|-13BU(15)---15BU(17)---16BU(18)---|-18BU(20)-------------------|
|----------------------------------|----------------------------|
|----------------------------------|----------------------------|
|----------------------------------|----------------------------|
|----------------------------------|----------------------------|

Interlude
|-----------------|
|-----------------|
|---------6---7-9-|
|-----------------|
|---8-----4-x-5-7-|
|-0---0-----x-----|

Repeat Chorus x2

Outro
|--------|
|--------|
|--------|
|--------|
|---8----|
|-0---0--|

Thatís all, Enjoy and please rate :)
Tap to rate this tab
# A B C D E F G H I J K L M N O P Q R S T U V W X Y Z