Tsuneo Imahori - Ht tab

H.T. Tsuneo Imahori ( Trigun Intro )



Tabbed by Metal_Mahni \m/MM\m/ 

All thanks to fronto242 




Listen to the Song for the Timing and corrrect Bends. In my ears the best 
Version on guitar, it sounds for me orginaly. For Hints and tips write my under 
my E-mail: vorwerker@t-onlie.de

Enjoy the tabs, hope its usefully 4 u (:


E|--------------------------------------------------------------------|
B|--------------------------------------------------------------------|
G|--------------------------------------------------------------------|
D|--------------------------------------------------------7-7-7-------|
A|--------------3-------------3~~~--------------3-----3---5-5-5-------|
E|0-3-4-5-3-3-5-----5-3-2-3-5-----0-3-4-5-3-3-5-----5-----------------|

E|--------------------------------------------------------------------|
B|--------------------------------------------------------------------|
G|--------------------------------------------------------------------|
D|--------------------------------------------------------------------|
A|--------------3-------------3~~~--------------3-----3---------------|
E|0-3-4-5-3-3-5-----5-3-2-3-5-----0-3-4-5-3-3-5-----5----5-3-5--------|

E|--------------------------------------------------------------------|
B|--------------------------------------------------------------------|
G|--------------5-------------5-----------------5-----5---------------|
D|--5-6-7-5-5-7-----7-5-4-5-7-------5-6-7-5-5-7-----7-----7-7-7-------|
A|7-------------------------------7-----------------------5-5-5-------|
E|--------------------------------------------------------------------| 2x

E|--------------------------------------------------------------------|
B|--------------------------------------------------------------------|
G|--------------5-------------5-----------------5-----5---------------|
D|--5-6-7-5-5-7-----7-5-4-5-7-------5-6-7-5-5-7-----7-----7-5757575---|
A|7-------------------------------7-----------------------------------|
E|--------------------------------------------------------------------|

E|--------------------------------------------------------------------|
B|--------------------------------------------------------------------|
G|--5-7-7-5-----5-7--7b6-5---7b6-5------------------------------------|
D|7-5-7-7-5-7-7-5-7--------7-------7-5-6-7-5--------------------------|
A|7---------7-7------------------------------7-5----------------------|
E|-----------------------------------------------8--------------------|

E|--------------------------------------------------------------------|
B|--------------------------------------------------------------------|
G|7--5-6-7-5-6-7-5-----5-6-7-5-6-7-5-6--7--5--7--5--------------------|
D|7--5-6-7-5-6-----7---5-6-7-5-6-7-5-6--7--5--7--5--------------------|
A|------------------5-------------------------------------------------|
E|--------------------------------------------------------------------|3x

E|--------------------------------------------------------------------|
B|--------------------------------------------------------------------|
G|7-8-9-7-8-9-7-8-9-7-----7-8-9---------------------------------------|
D|7-8-9-7-8-9-7-8-----9---7-8-9---------------------------------------|
A|----------------------7---------------------------------------------|
E|--------------------------------------------------------------------|

E|--------------------------------------------------------------------|
B|12b-12-10----10-----------------------------------------------------|
G|----------12----12-9-7--------9-8-9-8-9-8-9-------------------------|
D|-----------------------8-7------------------------------------------|
A|---------------------------11---------------------------------------|
E|--------------------------------------------------------------------|

E|--------------------------------------------------------------------|
B|--------------------------------------------------------------------|
G|--------------------------------------------------------------------|
D|--------------------------------------------------------7-7-7-------|
A|--------------3-------------3~~~--------------3-----3---5-5-5-------|
E|0-3-4-5-3-3-5-----5-3-2-3-5-----0-3-4-5-3-3-5-----5-----------------|

E|--------------------------------------------------------------------|
B|--------------------------------------------------------------------|
G|--------------------------------------------------------------------|
D|--------------------------------------------------------------------|
A|--------------3-------------3~~~--------------3-----3---------------|
E|0-3-4-5-3-3-5-----5-3-2-3-5-----0-3-4-5-3-3-5-----5----5-3-5--------|

E|--------------------------------------------------------------------|
B|--------------------------------------------------------------------|
G|--------------5-------------5-----------------5-----5---------------|
D|--5-6-7-5-5-7-----7-5-4-5-7-------5-6-7-5-5-7-----7-----7-7-7-------|
A|7-------------------------------7-----------------------5-5-5-------|
E|--------------------------------------------------------------------| 

E|--------------------------------------------------------------------|
B|--------------------------------------------------------------------|
G|--------------5-------------5-----------------5-----5---------------|
D|--5-6-7-5-5-7-----7-5-4-5-7-------5-6-7-5-5-7-----7-----7-5757575---|
A|7-------------------------------7-----------------------------------|
E|--------------------------------------------------------------------|

E|--------------------------------------------------------------------|
B|--------------------------------------------------------------------|
G|--5-7-7-5-----5-7--7b6-5---7b6-5------------------------------------|
D|7-5-7-7-5-7-7-5-7--------7-------7-5-6-7-5--------------------------|
A|7---------7-7------------------------------7-5----------------------|
E|-----------------------------------------------8--5-----------------|



b = bend

Tap to rate this tab
 
# A B C D E F G H I J K L M N O P Q R S T U V W X Y Z