Guitaretab - guitar tabs
Song name
# A B C D E F G H I J K L M N O P Q R S T U V W X Y Z

Turbonegro - High On The Crime tab

i didnt tab this
i found i off 911 tabs
but no one put it here
so i did

tabbed by elffriend on 911tabs


Intro
e|------------------------------------------------|
B|------------------------------------------------|
G|------------------------------------------------|    Repeat 1x
D|-10--10--12--10--10--12--10--10--12--10--10--12-|
A|--8---8---8---8---8---8---8---8---8---8---8---8-|
E|------------------------------------------------|
[ Tab from: http://www.guitaretab.com/t/turbonegro/115436.html ]
Intro Solo (Guitar2 plays verse):    A.H.
e|---------------------------------------------------------13------------13----------------------|
B|-----------------------------------------------------13------------13-------16b~---13h16p13----|
G|-----------------1--------------<3b(1)>--1h3p1-------15b----------15b------------------------15|
D|--------1ó3p1h3------3p1h3---------------------------------------------------------------------|
A|----/3-----------------------------------------------------------------------------------------|
E|-----------------------------------------------------------------------------------------------|

e|-------------------------------------------------------------------------------|
B|--13h16p13-------13h16p13------------------------------13----------------------|
G|------------15-------------15---13----------------------15b^--13------13-------|
D|-------------------------------------15p13h15~--------------------15------15~--|
A|-------------------------------------------------------------------------------|
E|-------------------------------------------------------------------------------|

Verse (with fills): /: F5 Ab5 Bb5 C#5 D#5 C#5 D#5 F5 :/

Pre chorus: C#5 Bb5 F5 C#5 Bb5 Eb5 C5 Eb5 C5 F5

Main riff: F Fsus4 Ab Absus4 Eb Ebsus4 Bb Bbsus4

Chorus(2nd guitar keeps playing main riff): F5 Ab5 Eb5 Bb5

Bridge: /:F5 Eb5 C5 Bb C5:/

In Playing Order:

Intro
Intro Solo
Verse
Pre Chorus
Main Riff
Chorus
Bridge
Verse
Pre Chorus
Main Riff
Chorus 2x
Bridge
End (ends on F5)

Feel free to improvise over the F blues scale during the verses. Have fun!
(by the way, for you who donít know, a 5 chord is the same as a power chord)
Related for High On The Crime tab