Song name
# A B C D E F G H I J K L M N O P Q R S T U V W X Y Z

Turbonegro - All My Friends Are Dead tab

------------------------------------------------------------------------------
--------------------------All_My_Friends_Are_Dead-----------------------------
------------------------------------------------------------------------------

This is probably correct...The solos were hard to hear so I did my best with 
that. I know that the song is in E minor so if you find a mistake you can 
correct it yourself.

Tuning: standard

Key: b = bend
     ~ = ring out
     x = mute string
     h = hammer on
     p = pull off
    pm = palm mute
    br = bend and return
     * = vibrato
     < = strum fast

[Intro]

 "Where your friends....where your friends....where are your friends man..."
 |==========4x===========|
e|-----------------------|
b|-----------------------|
g|-----------------------|
d|9--9-10----7--10--9----|
a|7--7--8----5---8--7----|
E|-----------------------|

***intro solo***

e|12b-12b-10~-----------------10b-12b-10b------------------------------------|
b|----------------------------------------x-x-x-10-10-12--13p12p10-----------|
g|-------------10br-9br-7*----------------------------------------12p11p9-7~-|
d|---------------------------------------------------------------------------|
a|---------------------------------------------------------------------------|
E|---------------------------------------------------------------------------|


[Pre-Verse 1]

 "What...What?...Where are my friends."
 "All my friends are dead, All My friends are dead."
e||------------------------------||
b||------------------------------||
g||------------------------------||
d||7--7--9--------7--7--9--------||
a||5--5--7--------5--5--7--------||
E||------------------------------||

[Verse 1]

  "They got kicked in the head, All my friends are dead."
e||----------------------------------------------------------------------||
b||----------------------------------------------------------------------||
g||----------------------------------------------------------------------||
d||7--7--5-5-5-5-5-5-5-5---------7-7-7-7-9-9-9-9-9-9-9-9-9-9-9-9-9-9-9-9-||
a||5--5--3-3-3-3-3-3-3-3-7-7-7-7-5-5-5-5-7-7-7-7-7-7-7-7-7-7-7-7-7-7-7-7-||
E||----------------------5-5-5-5-----------------------------------------||

  "All my friends are dead, all my friends are dead."  
 ||==================2x==================||
e||--------------------------------------||
b||--------------------------------------||
g||--------------------------------------||
d||7--7--9-9-9-9-9-9-9-9-9-9-9-9-9-9-9-9-||
a||5--5--7-7-7-7-7-7-7-7-7-7-7-7-7-7-7-7-||
E||--------------------------------------||

  "They got smacked in the head, All my friends are dead."
e||----------------------------------------------------------------------||
b||----------------------------------------------------------------------||
g||----------------------------------------------------------------------||
d||7--7--5-5-5-5-5-5-5-5---------7-7-7-7-9-9-9-9-9-9-9-9-9-9-9-9-9-9-9-9-||
a||5--5--3-3-3-3-3-3-3-3-7-7-7-7-5-5-5-5-7-7-7-7-7-7-7-7-7-7-7-7-7-7-7-7-||
E||----------------------5-5-5-5-----------------------------------------||

[Chorus 1]
  
  "I always knew that they would end up like today."
e||----------------------------------------------------------------||
b||----------------------------------------------------------------||
g||----------------------------------------------------------------||
d||5-5-5-5---------7-7-7-7---------9-9-9-9-9-9-9-9-9-9-9-9-9-9-9-9-||
a||3-3-3-3-5-5-5-5-5-5-5-5-7-7-7-7-7-7-7-7-7-7-7-7-7-7-7-7-7-7-7-7-||
E||--------3-3-3-3---------5-5-5-5---------------------------------||

  "They bought the bullet, and they played with hand grenades
e||----------------------------------------------------------------||
b||----------------------------------------------------------------||
g||----------------------------------------------------------------||
d||5-5-5-5---------7-7-7-7-----------------------------------------||
a||3-3-3-3-5-5-5-5-5-5-5-5-7-7-7-7-9-9-9-9-9-9-9-9-9-9-9-9-9-9-9-9-||
E||--------3-3-3-3---------5-5-5-5-7-7-7-7-7-7-7-7-7-7-7-7-7-7-7-7-||
 
  "Hey...Hey...Hey..."
 ||=====================4x====================||
e||-------------------------------------------||
b||-------------------------------------------||
g||-------------------------------------------||
d||-------------------------------------------||
a||101010-9-9-9-9-9-9-9-9-9-9-9-9-9-9-9-9-9-9-||
E||-8-8-8-7-7-7-7-7-7-7-7-7-7-7-7-7-7-7-7-7-7-||

***Chorus Solo***

e|-----------------------------------------------------10--|
b|-------------------------------------------10--12-13-----|
g|--------------------7-9-10h9p10-7--9-11-12---------------|
d|9~-10-10-10-9~-9-10--------------------------------------|
a|---------------------------------------------------------|
E|---------------------------------------------------------|

e|------------------------------|
b|13p12p10----------------------|
g|--------12p11p9-7p5p4---------|
d|---------------------7p5p4----|
a|---------------------------7~-|
E|------------------------------|

[Pre-Verse 2]

  "All my dreams were lies, All my dreams were lies."
 ||==================2x======================||
e||------------------------------------------||
b||------------------------------------------||
g||------------------------------------------||
d||7--7--9-9-9-9-9-9-9-9-9-9-9-9-9-9-9-9-9-9-||
a||5--5--7-7-7-7-7-7-7-7-7-7-7-7-7-7-7-7-7-7-||
E||------------------------------------------||

[Verse 2]

  "Lemme see the skies, All my dreams were lies."
e||----------------------------------------------------------------------||
b||----------------------------------------------------------------------||
g||----------------------------------------------------------------------||
d||7--7--5-5-5-5-5-5-5-5---------7-7-7-7-9-9-9-9-9-9-9-9-9-9-9-9-9-9-9-9-||
a||5--5--3-3-3-3-3-3-3-3-7-7-7-7-5-5-5-5-7-7-7-7-7-7-7-7-7-7-7-7-7-7-7-7-||
E||----------------------5-5-5-5-----------------------------------------||

  "All my friends are dead, all my friends dead." 
 ||==================2x==================||
e||--------------------------------------||
b||--------------------------------------||
g||--------------------------------------||
d||7--7--9-9-9-9-9-9-9-9-9-9-9-9-9-9-9-9-||
a||5--5--7-7-7-7-7-7-7-7-7-7-7-7-7-7-7-7-||
E||--------------------------------------||
 ||      pm..............................||

  "They got dragged out of bed, Now they're buried and there dead."
e||----------------------------------------------------------------------||
b||----------------------------------------------------------------------||
g||----------------------------------------------------------------------||
d||7--7--5-5-5-5-5-5-5-5---------7-7-7-7-9-9-9-9-9-9-9-9-9-9-9-9-9-9-9-9-||
a||5--5--3-3-3-3-3-3-3-3-7-7-7-7-5-5-5-5-7-7-7-7-7-7-7-7-7-7-7-7-7-7-7-7-||
E||----------------------5-5-5-5-----------------------------------------||

[Chorus 2]
  
  "I always knew that they would end up like today."
e||----------------------------------------------------------------||
b||----------------------------------------------------------------||
g||----------------------------------------------------------------||
d||5-5-5-5---------7-7-7-7---------9-9-9-9-9-9-9-9-9-9-9-9-9-9-9-9-||
a||3-3-3-3-5-5-5-5-5-5-5-5-7-7-7-7-7-7-7-7-7-7-7-7-7-7-7-7-7-7-7-7-||
E||--------3-3-3-3---------5-5-5-5---------------------------------||

  "They bought the bullet, and they played with hand grenades
e||----------------------------------------------------------------||
b||----------------------------------------------------------------||
g||----------------------------------------------------------------||
d||5-5-5-5---------7-7-7-7-----------------------------------------||
a||3-3-3-3-5-5-5-5-5-5-5-5-7-7-7-7-9-9-9-9-9-9-9-9-9-9-9-9-9-9-9-9-||
E||--------3-3-3-3---------5-5-5-5-7-7-7-7-7-7-7-7-7-7-7-7-7-7-7-7-||

  "Hey...Hey...Hey...Fuckin' A."
 ||=====================4x====================||
e||-------------------------------------------||
b||-------------------------------------------||
g||-------------------------------------------||
d||-------------------------------------------||
a||101010-9-9-9-9-9-9-9-9-9-9-9-9-9-9-9-9-9-9-||
E||-8-8-8-7-7-7-7-7-7-7-7-7-7-7-7-7-7-7-7-7-7-||

[Solo]

Stuff to know:
        *The rythm and bass plays Verse 1 during the solo.
        *Solo in E minor
        *This solo starts during chorus 2, So I've broken it up into twoparts 
         the first part is the part that is played during chorus 2 and the 	
         second part is the main solo.

Part 1

e|--------------------------------------------------------|
b|--------------------------------------------------------|
g|5-5-5-5---------7-7-7-7---------9-9-9-9-9-9-9-9-9br-----|
d|5-5-5-5-5-5-5-5-7-7-7-7-7-7-7-7-9-9-9-9-9-9-9-9-----9~--|
a|--------5-5-5-5---------7-7-7-7-------------------------|
E|--------------------------------------------------------|

e|--------------------------------------------|
b|------------------------3-3-5-5-5-5-5-5-5-5-|
g|------------2-2-4-4-5-5---------------------|
d|2-2-4-4-5-5---------------------------------|
a|--------------------------------------------|
E|--------------------------------------------|

e|---------------------------------------------------------------------|
b|--------------------------------------10--12-13-12<-1313-10<-12<-10<-|
g|4~-5-5-4~-7-9-10-9-10p9h10-7--9-11-12--------------------------------|
d|---------------------------------------------------------------------|
a|---------------------------------------------------------------------|
E|---------------------------------------------------------------------|

 Part 2

e|15b-15b-15b-12p10---------------------------15--17b-17--|
b|------------------13p12p10------------------------------|
g|--------------------------12p11p9-7-9b------------------|
d|--------------------------------------9-----------------|
a|--------------------------------------------------------|
E|--------------------------------------------------------|

e|---10-10----------10-10--------------------------------------------------|
b|10-------10h12p10-------10h12p10-13p12p10--------------------------------|
g|------------------------------------------12p11p9-9bp7-9b-7-9-11b-9------|
d|--------------------------------------------------------------------9----|
a|-------------------------------------------------------------------------|
E|-------------------------------------------------------------------------|

e|0-----0-----0-----0-----0---------5-5---5-5---5-5---5-5-|
b|--7-7---7-7---7-7---7-7---7-7-7-7-----7-----7-----7-----|
g|--------------------------------------------------------|
d|--------------------------------------------------------|
a|--------------------------------------------------------|
E|--------------------------------------------------------|

e|--------------10--------------------------------------------|
b|10-10b-8-10br----10br-8br-8---------------------------------|
g|----------------------9br-9-7-----------7-9p7h9-11-12p11h12-|
d|-------------------------------9-8-7-5----------------------|
a|------------------------------------------------------------|
E|------------------------------------------------------------|

e|----------------10----10-12b-12b~-|
b|8br-10-10h12h13----12-------------|
g|----------------------------------|
d|----------------------------------|
a|----------------------------------|
E|----------------------------------|

[Chorus 3]
  
  "I always knew that they would end up like today."
e||----------------------------------------------------------------||
b||----------------------------------------------------------------||
g||----------------------------------------------------------------||
d||5-5-5-5---------7-7-7-7---------9-9-9-9-9-9-9-9-9-9-9-9-9-9-9-9-||
a||3-3-3-3-5-5-5-5-5-5-5-5-7-7-7-7-7-7-7-7-7-7-7-7-7-7-7-7-7-7-7-7-||
E||--------3-3-3-3---------5-5-5-5---------------------------------||


  "They bought the bullet, and they played with hand grenades
e||----------------------------------------------------------------||
b||----------------------------------------------------------------||
g||----------------------------------------------------------------||
d||5-5-5-5---------7-7-7-7-----------------------------------------||
a||3-3-3-3-5-5-5-5-5-5-5-5-7-7-7-7-9-9-9-9-9-9-9-9-9-9-9-9-9-9-9-9-||
E||--------3-3-3-3---------5-5-5-5-7-7-7-7-7-7-7-7-7-7-7-7-7-7-7-7-||

  "Now they're buried and they're dead(x2) Now they're buried and they're..."
 ||=====================4x====================||
e||-------------------------------------------||
b||-------------------------------------------||
g||-------------------------------------------||
d||-------------------------------------------||
a||101010-9-9-9-9-9-9-9-9-9-9-9-9-9-9-9-9-9-9-||
E||-8-8-8-7-7-7-7-7-7-7-7-7-7-7-7-7-7-7-7-7-7-||

***Chorus Solo***

e|-------------------------------------------------------------------|
b|-------------------------------------------------------------------|
g|5-----7--------------------------------7-9-10-9-10-9-10-9-7--------|
d|5--5--7--7-9~-10-10-9~-10-10-9--7-9-10----------------------10-9-7-|
a|---5-----7---------------------------------------------------------|
E|-------------------------------------------------------------------|

e|-------------------------|
b|-------------------------|
g|4444-5-5-7-777555444---5-|
d|--------------------7775-|
a|-------------------------|
E|-------------------------|

[Outro]

  "...Dead!.......Dead!!.."
 ||==========2x===========|
e||-----------------------|
b||-----------------------|
g||-----------------------|
d||9--9-10----7--10--9----|
a||7--7--8----5---8--7----|
E||-----------------------|

Tap to rate this tab
# A B C D E F G H I J K L M N O P Q R S T U V W X Y Z