Guitaretab - guitar tabs
Song name
# A B C D E F G H I J K L M N O P Q R S T U V W X Y Z

Typecast - What You Are tab

Typecast
What You Are
Every Moss And Cobweb
Tabbed by: paramore_fans@yahoo.com or add noy ako sa friendster n2sed_182@yahoo.com
Mga tol, this is one of their best songs ever!!!

Tuning: Dropped D all 3 guitars


Intro:

Part 1: Beat is standard 4/4

Guitar 1:
e|-----------------|
B|-----------------|
G|-----------------|
D|-0~---1---3~---1-| (x2)
A|-0~---1---3~---1-|
D|-0~---1---3~---1-|

Guitar 2:
e|---------------------------------------------------------------------------------|
B|-----------------------------------------6-6-----6-6-----6-----------------------|
G|-7-7-----7-7-----7---8-8-----8-8-----8-----------------------8-8-----8-8-----8---|
D|-----5-5-----5-5---5-----5-5-----5-5---5-----5-5-----5-5---5-----5-5-----5-5---5-|
A|---------------------------------------------------------------------------------|
D|---------------------------------------------------------------------------------|
then
e|---------------------------------------------------------------------|
B|-----------------------------------------6-6-----6-6-----6-----------|
G|-7-7-----7-7-----7---8-8-----8-8-----8-----------------------8-8-----|
D|-----5-5-----5-5---5-----5-5-----5-5---5-----5-5-----5-5---5-----5-5-|
A|---------------------------------------------------------------------|
D|---------------------------------------------------------------------|


Part 2: Beat will switch to 3/4

Guitar 1:
e|--------------------------|
B|--------------------------|
G|--------------------------|
D|-1(x12)-8(x6)-0(x3)-3(x3)-| (x2)
A|-1(x12)-8(x6)-0(x3)-3(x3)-|
D|-1(x12)-8(x6)-0(x3)-3(x3)-|

Guitar 2:
e|------------------------------------------|
B|------------------------------------------|
G|-10--10--5--5--10--10--14/15\14/15~---17~-|
D|--x---x--x--x---x---x---x/-x\-x/-x~----x~-|
A|--8---8--3--3---8---8--12/13\12/13~---15~-|
D|------------------------------------------|
then
e|--------------------------------------------|
B|--------------------------------------------|
G|-10--10--5--5--10--10--7--7--3-----3---3-5~-|
D|--x---x--x--x---x---x--x--x--3---3---3---x~-|
A|--8---8--3--3---8---8--5--5--1-1---------3~-|
D|--------------------------------------------|


Verse 1: Wake me up from this dream...

Guitar 1: Palm muted
e|--------------------------|
B|--------------------------|
G|--------------------------|
D|-1(x12)-8(x6)-0(x3)-3(x3)-| (x2)
A|-1(x12)-8(x6)-0(x3)-3(x3)-|
D|-1(x12)-8(x6)-0(x3)-3(x3)-|


Guitar 2:
e|--10----|--11----|--------|--13----|
B|-----11-|-----11-|--13-11-|-----11-|
G|--------|--------|--------|--------|
D|--------|--------|--------|--------| (x2)
A|--------|--------|--------|--------|
D|--------|--------|--------|--------|


Chorus: Iím standing on top of the cliff

Guitar 1:
e|-----------------------|--------------------------|
B|-----------------------|--------------------------|
G|-----------------------|--------------------------|
D|-1(x12)-5(x12)-8(x3)-3-|-1(x12)-8(x6)-0(x3)-3(x3)-| (x2)
A|-1(x12)-5(x12)-8(x3)-3-|-1(x12)-8(x6)-0(x3)-3(x3)-|
D|-1(x12)-5(x12)-8(x3)-3-|-1(x12)-8(x6)-0(x3)-3(x3)-|

Guitar 2:
e|---------------------------------|---------------------------------|
B|---------------------------------|---------------------------------|
G|-----10/14-------14/15\14---3--5-|-10---5---10---7---3-----3---3-5-|
D|-13---x/-x--13----x/-x\-x---3--5-|--x---x----x---x---3---3---3---x-| (x2)
A|-13---8/12--13---12/13\12---1--3-|--8---3----8---5---1-1---------3-|
D|-13---------13-------------------|---------------------------------|


Interlude 1:

Guitar 1:
e|---|---|
B|---|---|
G|---|---|
D|-1-|-1-|
A|-1-|-1-|
D|-1-|-1-|

Guitar 2:
e|---------------------|-------------------|
B|---------------------|-------------------|
G|-------------2h3p2---|-------------2h3-5-|
D|-3h5-----3h5-------3-|-3h5-----3h5-------|
A|-----3h5-------------|-----3h5-----------|
D|---------------------|-------------------|

Guitar 3:
e|---|-----------------1-|
B|---|-------------3h4---|
G|-8-|-3h5-----3h5-------|
D|-8-|-----3h5-----------|
A|-6-|-------------------|
D|---|-------------------|


Verse 2: I hope that somewhere there in your heart...

e|--------------------------|
B|--------------------------|
G|--------------------------|
D|-1(x12)-8(x6)-0(x3)-3(x3)-| (x2)
A|-1(x12)-8(x6)-0(x3)-3(x3)-|
D|-1(x12)-8(x6)-0(x3)-3(x3)-|

[ Tab from: http://www.guitaretab.com/t/typecast/151524.html ]
Guitar 2:
e|--10----|--11----|--------|--13----|
B|-----11-|-----11-|--13-11-|-----11-|
G|--------|--------|--------|--------|
D|--------|--------|--------|--------| (x2)
A|--------|--------|--------|--------|
D|--------|--------|--------|--------|


So fly me out of this place we don't have to be here anyway

Guitar 1:
e|--------------------------|
B|--------------------------|
G|--------------------------|
D|-1(x12)-8(x6)-0(x3)-3(x3)-| (x2)
A|-1(x12)-8(x6)-0(x3)-3(x3)-|
D|-1(x12)-8(x6)-0(x3)-3(x3)-|

Guitar 2:
e|----------------------------|
B|----------------------------|
G|-8(x12)-15(x6)-7(x3)-10(x3)-|
D|-8(x12)-15(x6)-5(x3)-10(x3)-| (x2)
A|-6(x12)-13(x6)-5(x3)--8(x3)-|
D|----------------------------|

Guitar 3:
e|-13----13----13--------------13-|
B|----11----11----11--10h11p11----|
G|--------------------------------|
D|--------------------------------| (x4)
A|--------------------------------|
D|--------------------------------|


(Repeat Chorus)


Interlude 2:

Guitar 1:
e|---|---|---|---|
B|---|---|---|---|
G|---|---|---|---|
D|-1-|-1-|-5-|-5-| (x2)
A|-1-|-1-|-5-|-5-|
D|-1-|-1-|-5-|-5-|

Guitar 2:
e|---------------------|-------------------|
B|---------------------|-------------------|
G|-------------2h3p2---|-------------2h3-5-|
D|-3h5-----3h5-------3-|-3h5-----3h5-------| (x2)
A|-----3h5-------------|-----3h5-----------|
D|---------------------|-------------------|

Guitar 3:
e|---|-----------------1-|
B|---|-------------3h4---|
G|-8-|-3h5-----3h5-------|
D|-8-|-----3h5-----------| (x2)
A|-6-|-------------------|
D|---|-------------------|


Interlude 3:

Guitar 1:
e|---------------------------|--------------------------|
B|---------------------------|--------------------------|
G|---------------------------|--------------------------|
D|-1(x12)-5(x12)-8(x3)-3(x3)-|-1(x12)-8(x6)-0(x3)-3(x3)-|
A|-1(x12)-5(x12)-8(x3)-3(x3)-|-1(x12)-8(x6)-0(x3)-3(x3)-|
D|-1(x12)-5(x12)-8(x3)-3(x3)-|-1(x12)-8(x6)-0(x3)-3(x3)-|

Guitar 2:
e|-------------------------------|
B|-------------------------------|
G|-----------------0-------2---3-|
D|-----3---1---0-------3---------| (x2)
A|-1-----------------------------|
D|-------------------------------|

Guitar 3:
e|----------------|-8h10p8-------|-----------|
B|-10h11p10-------|--------11p10-|-6h8p6-----|
G|----------10----|--------------|-------8p7-|
D|-------------12-|--------------|-----------| (x2)
A|----------------|--------------|-----------|
D|----------------|--------------|-----------|
        x4               x2            x2


Cool Riff Before Chorus:

Guitar 1:
e|-------------------------------|
B|-------------------------------|
G|-19--17--15--14--10-8-7--10----|
D|--x---x---x---x---x-x-x---x--8-|
A|-17--15--13--12---8-6-5---8--8-|
D|-----------------------------8-|

Guitar 2: Idle

Guitar 3:
e|-10-------------------------------|
B|-----13--11--10----------------11-|
G|-----------------10--------10-----|
D|--------------------13-12---------|
A|----------------------------------|
D|----------------------------------|


(Repeat Chorus)

(Repeat Interlude 3)


Outro: End on Eb all guitars

__________________________________________________

Lyrics:

Chords used: Drop D only
Eb - 111xxx
Bb - 888xxx
D -  000xxx
F -  333xxx
Gm - 555xxx

Intro: D--Eb-F-Eb (x2) then Eb--Bb-D-F


Verse 1:
Eb                          Bb  D           F
  Wake me up from this dream    This is not happening
Eb                  Bb       D    F
  I canít run to you I canít feel life


Chorus:
Eb                           Gm
  Iím standing on top of the cliff
        Bb       F(hold) Eb                     Bb-D-F
And Iím ready to jump,   ready to fall once more
Eb                        Gm
  I canít change what you are
       Bb       F(hold)  Eb                     Bb-D-F
So Iím ready to jump,    ready to fall once more


Interlude 1: Eb--Eb

Verse 2:
Eb                                         Bb
  I hope that somewhere there in your heart
 D         F        Eb                      Bb
Screams my name out loud wanting to come out
                     D F
Wanting to jump with me
   Eb
So fly me out of this place
Bb               D       F     Eb
We donít have to be here anyway
                  Bb            D    F
Letís go somewhere where nobody knows


(Repeat Chorus)


Interlude 2: Eb-Gm (x2)

Repeat Chorus chords

Cool Riff: D--C--Bb--A--F-Eb-D--F--Bb

(Repeat Chorus)

Repeat Interlude 3

Outro: End on Eb
Related for What You Are tab