Song name
# A B C D E F G H I J K L M N O P Q R S T U V W X Y Z

Undertones - Teenage Kicks tab

Hey im alex this is my first tab entry im only 13 but i know for damn sure this is right
it is the easiest way to play it lookin at the other entries. the solo looks
but ive made it alot easier so enjoy play the pwer chords fast though or i if u want to 
the main riff slower cut it down to only 7 strums n take a slower go first =] any 
or
email me on my_heart_shaped_glasses@hotmail.com
* = times
INTRO ( do 7 stums of 7 and 6 if you wwant to go slower )
                      5     4
E|----------------------------------------------------------------  * 2------|
B|---------------------------------------------------------------------------|
G|---------------------------------------------------------------------------|
D|----7-7-7-7-7-7-7-7-7-7-7-7-6-6--4-4-4-4-4-4-4-4-4-4-4-4-------------------|
A|----5-5-5-5-5-5-5-5-5-5-5-5-4-4--2-2-2-2-2-2-2-2-2-2-2-2-------------------|
E|---------------------------------------------------------------------------|
 MAIN RIFF ( take 7 strums of 7 and 4 if you want to go at a slower pace)
                              5     2
E|---------------------------------------------------------------------------|
B|---------------------------------------------------------------------------|
G|---------------------------------------------------------------------------|
D|---7-7-7-7-7-7-7-7-7-7-7-7-6-6--4-4-4-4-4-4-4-4-4-4-4-4--------------------|
A|---5-5-5-5-5-5-5-5-5-5-5-5-4-4--2-2-2-2-2-2-2-2-2-2-2-2--------------------|
E|---------------------------------------------------------------------------|
E|---------------------------------------------------------------------------|
B|---------------------------------------------------------------------------|
G|---------------------------------------------------------------------------|
D|---7-7-7-7-7-7-7-7-7-7-7-7-6-6--4-4-4-4-4-4-4-4-4-4-4-4--------------------|
A|---5-5-5-5-5-5-5-5-5-5-5-5-4-4--2-2-2-2-2-2-2-2-2-2-2-2--------------------|
E|---------------------------------------------------------------------------|
  CHORUS ( do 8 strums of each if you prefer to go slower )
E|--------------------------------------------------------------------------|
B|--------------------------------------------------------------------------|
G|--------------------------------------------------------------------------|
D|--------------------------------------------------------------------------|
A|--6-6-6-6-6-6-6-6-6-6-6-6-6-6--8-8-8-8-8-8-8-8-8-8-8-8-8-8----------------|
E|--4-4-4-4-4-4-4-4-4-4-4-4-4-4--6-6-6-6-6-6-6-6-6-6-6-6-6-6----------------|
 MAIN RIFF ( take 7 strums of 7 and 4 if you want to go at a slower pace)
                              5     2
E|---------------------------------------------------------------------------|
B|---------------------------------------------------------------------------|
G|---------------------------------------------------------------------------|
D|---7-7-7-7-7-7-7-7-7-7-7-7-6-6--4-4-4-4-4-4-4-4-4-4-4-4--------------------|
A|---5-5-5-5-5-5-5-5-5-5-5-5-4-4--2-2-2-2-2-2-2-2-2-2-2-2--------------------|
E|---------------------------------------------------------------------------|
E|---------------------------------------------------------------------------|
B|---------------------------------------------------------------------------|
G|---------------------------------------------------------------------------|
D|---7-7-7-7-7-7-7-7-7-7-7-7-6-6--4-4-4-4-4-4-4-4-4-4-4-4--------------------|
A|---5-5-5-5-5-5-5-5-5-5-5-5-4-4--2-2-2-2-2-2-2-2-2-2-2-2--------------------|
E|---------------------------------------------------------------------------|
  CHORUS ( do 8 strums of each if you prefer to go slower )
E|--------------------------------------------------------------------------|
B|--------------------------------------------------------------------------|
G|--------------------------------------------------------------------------|
D|--------------------------------------------------------------------------|
A|--6-6-6-6-6-6-6-6-6-6-6-6-6-6--8-8-8-8-8-8-8-8-8-8-8-8-8-8----------------|
E|--4-4-4-4-4-4-4-4-4-4-4-4-4-4--6-6-6-6-6-6-6-6-6-6-6-6-6-6----------------|

INTRO AGAIN ( do 7 stums of 7 and 6 if you wwant to go slower )
                      5     4
E|----------------------------------------------------------------  * 2------|
B|---------------------------------------------------------------------------|
G|---------------------------------------------------------------------------|
D|----7-7-7-7-7-7-7-7-7-7-7-7-6-6--4-4-4-4-4-4-4-4-4-4-4-4-------------------|
A|----5-5-5-5-5-5-5-5-5-5-5-5-4-4--2-2-2-2-2-2-2-2-2-2-2-2-------------------|
E|---------------------------------------------------------------------------|
 MAIN RIFF ( take 7 strums of 7 and 4 if you want to go at a slower pace)
                              5     2
E|---------------------------------------------------------------------------|
B|---------------------------------------------------------------------------|
G|---------------------------------------------------------------------------|
D|---7-7-7-7-7-7-7-7-7-7-7-7-6-6--4-4-4-4-4-4-4-4-4-4-4-4--------------------|
A|---5-5-5-5-5-5-5-5-5-5-5-5-4-4--2-2-2-2-2-2-2-2-2-2-2-2--------------------|
E|---------------------------------------------------------------------------|
E|---------------------------------------------------------------------------|
B|---------------------------------------------------------------------------|
G|---------------------------------------------------------------------------|
D|---7-7-7-7-7-7-7-7-7-7-7-7-6-6--4-4-4-4-4-4-4-4-4-4-4-4--------------------|
A|---5-5-5-5-5-5-5-5-5-5-5-5-4-4--2-2-2-2-2-2-2-2-2-2-2-2--------------------|
E|---------------------------------------------------------------------------|
  CHORUS ( do 8 strums of each if you prefer to go slower )
E|--------------------------------------------------------------------------|
B|--------------------------------------------------------------------------|
G|--------------------------------------------------------------------------|
D|--------------------------------------------------------------------------|
A|--6-6-6-6-6-6-6-6-6-6-6-6-6-6--8-8-8-8-8-8-8-8-8-8-8-8-8-8----------------|
E|--4-4-4-4-4-4-4-4-4-4-4-4-4-4--6-6-6-6-6-6-6-6-6-6-6-6-6-6----------------|
 MAIN RIFF ( take 7 strums of 7 and 4 if you want to go at a slower pace)
                              5     2
E|---------------------------------------------------------------------------|
B|---------------------------------------------------------------------------|
G|---------------------------------------------------------------------------|
D|---7-7-7-7-7-7-7-7-7-7-7-7-6-6--4-4-4-4-4-4-4-4-4-4-4-4--------------------|
A|---5-5-5-5-5-5-5-5-5-5-5-5-4-4--2-2-2-2-2-2-2-2-2-2-2-2--------------------|
E|---------------------------------------------------------------------------|
E|---------------------------------------------------------------------------|
B|---------------------------------------------------------------------------|
G|---------------------------------------------------------------------------|
D|---7-7-7-7-7-7-7-7-7-7-7-7-6-6--4-4-4-4-4-4-4-4-4-4-4-4--------------------|
A|---5-5-5-5-5-5-5-5-5-5-5-5-4-4--2-2-2-2-2-2-2-2-2-2-2-2--------------------|
E|---------------------------------------------------------------------------|
  CHORUS ( do 8 strums of each if you prefer to go slower )    SOLO INTRO
E|-----------------------------------------------------------|-------------|
B|-----------------------------------------------------------|-^-^---------|
G|-----------------------------------------------------------|-6-6---------|
D|-----------------------------------------------------------|-4-4---------|
A|--6-6-6-6-6-6-6-6-6-6-6-6-6-6--8-8-8-8-8-8-8-8-8-8-8-8-8-8-|-------------|
E|--4-4-4-4-4-4-4-4-4-4-4-4-4-4--6-6-6-6-6-6-6-6-6-6-6-6-6-6-|-------------|
 SOLO
E|-------------^^^^^^^^^^^^^^^^^^^^----------------------------------------|
B|-------------10-10-10-10-10-10-10----------------------------------------|
G|-------------10-1O-10-10-10-10-10----------------------------------------|
D|----------12-------------------------------------------------------------|
A|-------12----------------------------------------------------------------|
E|-10-10-------------------------------------------------------------------|

E|--------^^^^^^^^^^^^^----------------------------------------------------|
B|--------7-7-7-7-7-7-7----------------------------------------------------|
G|--------7-7-7-7-7-7-7----------------------------------------------------|
D|------9------------------------------------------------------------------|
A|----9--------------------------------------------------------------------|
E|-7-7---------------------------------------------------------------------|

E|--------------^^^^^^^^^^^^^^^^^^^----------------------------------------|
B|-------------10-10-10-10-10-10-10----------------------------------------|
G|-------------10-1O-10-10-10-10-10----------------------------------------|
D|----------12-------------------------------------------------------------|
A|-------12----------------------------------------------------------------|
E|-10-10-------------------------------------------------------------------|

E|--------^^^^^^^^^^^^^----------------------------------------------------|
B|--------7-7-7-7-7-7-7----------------------------------------------------|
G|--------7-7-7-7-7-7-7----------------------------------------------------|
D|------9------------------------------------------------------------------|
A|----9--------------------------------------------------------------------|
E|-7-7---------------------------------------------------------------------|
  CHORUS ( do 8 strums of each if you prefer to go slower )
E|--------------------------------------------------------------------------|
B|--------------------------------------------------------------------------|
G|--------------------------------------------------------------------------|
D|--6-6-6-6-6-6-6-6-6-6-6-6-6-6--8-8-8-8-8-8-8-8-8-8-8-8-8-8----------------|
A|--4-4-4-4-4-4-4-4-4-4-4-4-4-4--6-6-6-6-6-6-6-6-6-6-6-6-6-6----------------|
E|--------------------------------------------------------------------------|
 OUTRO
E|--------------------------------------------------------------------------|
B|--------------------------------------------------------------------------|
G|------------------^-------------------------------------------------------|
D|--7-7-------------7-------------------------------------------------------|
A|--5-5--3-3--7-77--5-------------------------------------------------------|
E|-------5-5--5-55----------------------------------------------------------|
Tap to rate this tab
 
# A B C D E F G H I J K L M N O P Q R S T U V W X Y Z