Song name
# A B C D E F G H I J K L M N O P Q R S T U V W X Y Z

Undertones - Wrong Way tab

Band - The Undertones
Song - Wrong Way
Album - The Undertones

Tabbed By: SumFX (Tyler Freear)

Very Easy Song You Could Play It In 5th's(powerchords)But Full
Barres Sound Better!


Main Riff
  D    F    C    D    D     F    C    D
|------111-----------|------111----------|
|-777--111--555--777-|-777--111--555--77-|
|-777--222--555--777-|-777--222--555--77-|
|-777--333--555--777-|-777--333--555--77-|
|-555--333--333--555-|-555--333--333--55-|
|------111-----------|------111----------|

Chorus
  G         C
|-33333333-----------|
|-33333333--55555555-|
|-44444444--55555555-|
|-55555555--55555555-|
|-55555555--33333333-|
|-33333333-----------|

Lead Lines
|-----------------|---------------|
|-----------------|---------------|
|---------2-4-5-4-|---------------|
|-0-2-3-5---------|-0-2-3-5-3---0-|
|-----------------|-----------3---|
|-----------------|---------------|

|-----------------|---------------|
|-----------------|-------------3-|
|---------2-4-5-4-|---------2-5---|
|-0-2-3-5---------|-0-2-3-5-------|
|-----------------|---------------|
|-----------------|---------------|


Structure
Main Riff x3
Chorus x 4

Main Riff x2
Chorus x4

Main Riff x2 w/Lead Lines
Chorus x4

Main Riff x2 w/Lead Lines


There You Go!!
More Undertones Tabs To Come!

Rate & Comment Please!!!!
Tap to rate this tab
# A B C D E F G H I J K L M N O P Q R S T U V W X Y Z