Song name
# A B C D E F G H I J K L M N O P Q R S T U V W X Y Z

Violent Soho - Dope Calypso tab

Violent Soho
Dope Calypso

Dropped D tuning
(DADGBE)



INTRO
|-------------------------------------------------------------------|
|-------------------------------------------------------------------|
|---11---11---11---11-----6--------7-----7-----7-----7------4-------|
|-----0----0----0----0------0--------0-----0-----0-----0------0-----| X4
|--9----9----9----9-----4-----4--5-----5-----5-----5------2-----2---|
|-------------------------------------------------------------------|


INTRO II
|-------------------------------------------------------------------|
|-------------------------------------------------------------------|
|--11-------------------6--------7------------------------4---------|
|--0-(x12)--------------0-(x4)---0-(x12)------------------0-(x4)----| X4
|--9--------------------4--------5------------------------2---------|
|--0--------------------0--------0------------------------0---------|


VERSE
|--------------------------------|
|--------------------------------|
|--------------------------------|
|--------------------12-12-12----| X10
|-9-9-12-14-12-9-99--9--9--9-----|
|-0-0-0--0--0--0-00--0--0--0-----|


CHORUS
|------------------------|
|------------------------|
|------------------------|
|-0-000--9-999--5555-----|
|-0-000--9-999--5555-----|
|-0-000--9-999--5555-----|


That is pretty much all the riffs for the song, Just listen to it for timing.

INTRO    x4
INTRO II x4
VERSE    x10
INTRO II x2
CHORUS   x4
INTRO II x2
VERSE    X8
INTRO II x2
CHORUS   x8
INTRO    x3
INTRO II x6
Tap to rate this tab
 
# A B C D E F G H I J K L M N O P Q R S T U V W X Y Z