Song name
# A B C D E F G H I J K L M N O P Q R S T U V W X Y Z

Waltz Reprise - Parlay tab

Waltz Reprise
Parlay
Be Still Know
Submitted by: paramore_fans@yahoo.com

Key: D

Tuning: Standard EADGBe

Chords used:
Bm -  x24432
G -   320033
D -   xx0232
A -   x02220
Em -  022000
F#m - 244222


Intro: Drumbeats


Verse 1:
        Bm       G    Bm
I never lost with coz everything
  G                G  Em
I say it chained today
    G
The bullet hits the ears
    Bm             G
I'm asking them to come with me
    Bm         G        G     Em
And so without you be my guide
      G
(like fall for sign)


Chorus:
     Bm
This one time caving in
            D
(This is my ambulance)
     G                Em          A
Just push me back and share your stealth
Bm
  (There'll be a right informed
                D
I will live the day with you
G              Em        A
  and now just fade away)


Interlude 1: Bm-G-Bm-G-G-Em-G--


Guitar 2:
e|-3--2--3-2-0-------0-2-3-5--7--5--2h3p2p0--3-2---|
B|--------------3--3-----------------------------3-|
G|-------------------------------------------------|
D|-------------------------------------------------|
A|-------------------------------------------------|
E|-------------------------------------------------|


Verse 2:
       Bm       G  Bm
Mishap afternoon today's
         G            G    Em
thousand voices never heard
G
This is what I've said
    Bm                 G
The thing must top its free wall
   Bm              G            G    Em
on hours stayed on me I close my eyes
    G
and when you say, that


Interlude 2: A--F#m--D-Em (x2) Bm--Bm---Bm--Bm--Bm--Bm--Bm (x2)
Bm Bm-D-G-Em


Guitar 2:
e|-5--7---2--0---0-----2----|----------------------|
B|------------------2-----3-|----------------------|
G|--------------------------|-4--4---4--4--4--4--4-|
D|--------------------------|-4--4---4--4--4--4--4-|
A|--------------------------|-2--2---2--2--2--2--2-|
E|--------------------------|----------------------|
             x2                         x2

e|----------------|
B|----------------|
G|-4---4--7-------|
D|-4---4--7--5--2-|
A|-2---2--5--5--2-|
E|-----------3--0-|


Bridge:
    Bm       D     G      A Bm-D-G-Em
And many ends just losing in
     Bm             D     G  A(hold) Bm-G-Bm-G
that what this feels like anyway
     G                Em          A
Just push me back and share your stealth
Bm
  (There'll be a right informed
                D
I will live the day with you
G              Em        A
  and now just fade away)


Guitar 2: while doing bridge
e|-----2---0-------2---5-2-5---5-7-------5-----|
B|-3---------3-2-0---3-------7-----7---7-------|
G|---4---4---------------------------7-----6-5-|
D|---------------------------------------------| repeat many times
A|---------------------------------------------|
E|---------------------------------------------|


(Repeat Chorus)


Outro: Bm--Bm, Bm


Guitar 2:
e|-----2---0-------2---5-2-5---5-7---|
B|-3---------3-2-0---3-------7-----3-|
G|---4---4-------------------------4-|
D|---------------------------------4-|
A|---------------------------------2-|
E|-----------------------------------|
Tap to rate this tab
# A B C D E F G H I J K L M N O P Q R S T U V W X Y Z