Song name
# A B C D E F G H I J K L M N O P Q R S T U V W X Y Z

Waltz Reprise - Transparent tab

Band: Waltz Reprise
Song: Transparent
Album: Be Still And Know
Tabbed by: Matt Florio; myspace.com/mattflorio2
Email: shempashland@yahoo.com

Hey! Enjoy... ask if you have questions.. play along w/ song... pretty sure it's correct!
much love..

Intro
e|------------------|
b|--------10--------|
g|--10-9----9-10----|
d|------10----------|
a|------------------|
D|------------------|

Verse
e|-5--3--8-(8)------|
b|-6--5--10-10------|
g|-7--5--10-9-------|
d|-7--3--8--7-------|
a|-5--3--8--7-------|
D|-0-----8--7-------|

Chorus
e|------------------------------|
b|------------------------------|
g|--10--12------109-----1012-9--|
d|--8---10---00-x-x--00-x-x--x--|
a|--8---10---00-8-7--00-8-10-7--|
D|--8---10---00------00---------|

2nd verse
(go for it this time..) (i cant do this alone)
e|------------------------|
b|------------------------|
g|-7-7/9-9/10-10/12-10/9--|
d|-x-x/x-x/x--x/x----x/x--|
a|-5-5/7-7/8--8/10---8/7--|
D|------------------------|

Bridge
(dont tell me its...)
e|-------------------------------------------|
b|-------------------------------------------|
g|-------------------------------------------|
d|-12-12-12-12-10-10-10-10-8-8-8-8-7-7-10-10-|
a|-12-12-12-12-10-10-10-10-8-8-8-8-7-7-10-10-|
D|-12-12-12-12-10-10-10-10-8-8-8-8-7-7-10-10-|

Breakdown
(dont tell...) w/ screaming
e|----------------|
b|----------------|
g|----------------|
d|-0-10-8-7-10----|
a|-0-10-8-7-10----|
D|-0-10-8-7-10----|
Tap to rate this tab
# A B C D E F G H I J K L M N O P Q R S T U V W X Y Z