Song name
# A B C D E F G H I J K L M N O P Q R S T U V W X Y Z

Waltz Reprise - North tab

Band: Waltz Reprise
Song: North
Album: Unrelease Second Album
Year: 2008
Tabbed By: Matt Florio; www.myspace.com/mattflorio2
Email: Shempashland@yahoo.com

Tuning: Drop D

This song is an amazing and beautiful creation!
Sadly it is the band's last released track.
It's basically my take on the song.
Play along with the song, which can be downloaded at www.myspace.com/waltzreprise.
Any questions or comments just ask me!
Peace.

Intro
e|--3--------------3-----|
b|--4-6-6----------4-6-6-|
g|--5-8-8-----12---5-8-8-|
d|--5-8-8-8/10--10-5-8-8-|
a|--3-6-6----------3-6-6-|
D|------6--------------6-|

e|----------------------------------|
b|----------------------------------|
g|----------------------7-6-7-4h5p4-|
d|----5b-5b-3--5b-5b-3--------------|
a|--6b-------3--------3-------------|
D|----------------------------------|

(please...to hold onto)
e|--------------------------|
b|--------------------------|
g|--------888-888-555-555---|
d|--------888-888-555-555---|or6 3
a|--------666-666-333-333---|  6 3
D|--------666-666-333-333---|  6 3

e|-----------------------------------|
b|-----------------------------------|
g|---8-----------7h8p7----7-8-10-8p7-|
d|-10-10-8------------8-10-----------|
a|--------10-8-10--------------------|
D|-----------------------------------|

(please...)
e|----------------------------11-11------|
b|----------------------------33-33------|
g|----------------------------33-33---5*-|
d|---6-6-6-6-6-6-3-3-3-3-3-3--11-11---5*-|
a|---6-6-6-6-6-6-3-3-3-3-3-3--11-11---3*-|
D|---6-6-6-6-6-6-3-3-3-3-3-3--11-11------|
***Palm Mute

(cos theres a big world out there)
e|--------------|
b|-----------3--|
g|--7--10-12-3--|
d|--6--8--10-1--|
a|--6--8--10-1--|
D|--6--8--10-1--|

(its time to let go)
e|----------------------|
b|-----33-----33--------|
g|-----33-----33--------|
d|-----11-----11--------|
a|-----11-----11--------|
D|-----11-----11--------|
Tap to rate this tab
# A B C D E F G H I J K L M N O P Q R S T U V W X Y Z