Song name
# A B C D E F G H I J K L M N O P Q R S T U V W X Y Z

Washya - Jaded tab

-----------------------------------------------------------------------------
                         Jaded - Washya
-----------------------------------------------------------------------------
Tuning: Drop B (BF#BEG#C#) 
Intro
B|----------------------------------------------|
F#|---------------------------------------------|
B|----------------------------------------------|
E|------8-7-------8------6-5-------6---------9--|
G#|---5-------5--------3-------3-------7-9------|
C#|-5-------5---5----3-------3---3---7-----7----|
pm  . .     . . .    . .     . . .   .     .   

Verses
B|--------------------------------------------------|
F#|-------------------------------------------------|
B|--------------------------------------------5b----|
E|------9~-----10-9-----7-----7-7b-----5b--------5b-|
G#|---7------7--------5-----5--------3------3-------|
C#|-7------7--------5-----5--------3------3---------|
pm  . .    . .      . .   . .      . .    . .  

Chorus
B|-------------------------------------------12b-15b----------------|
F#|------------------------------------------15b-17b----------------|
B|------------------------------------------------------------------|
E|--------5b---3b-5b--------------------8b--------------------------|
G#|-0-2-3----0-------0-3-2-0-2-0-2b-000----0---------0-3-1-0-1-0-2b-|
C#|-0-2-3----0-------0-3-2-0-2-0----000----0---------0-3-1-0-1-0----|
pm  . . .    .       . . . . . .    ...    .         . . . . . .   
Tap to rate this tab
 
# A B C D E F G H I J K L M N O P Q R S T U V W X Y Z