Song name
# A B C D E F G H I J K L M N O P Q R S T U V W X Y Z

Washya - Twist Of Fate tab

-----------------------------------------------------------------------------
                        Twist Of Fate - Washya
-----------------------------------------------------------------------------
Tuning: Standard (ebgDAE)
Intro
e|----------------------------|
b|----------------------------|
g|----------------------------|
D|----------------------------|
A|-----5-4-----7-6-----3-2-22-|
E|-0-3-----0-5-----0-1-----00-|x15
PM . . . . . . . . . . . .    

Verses
e|---------------------------|
b|---------------------------|
g|---------------------------|
D|---3-------5-----3---------|
A|-5-1-4-2-7-3-6-4-1-2-5-3-2-|
E|-3---2-0-5---4-2---0-3-1-0-|

Chorus
e|-------------------------------------------------------|
b|-------------------------------------------------------|
g|-------------------------------------------------------|
D|-------------------------------3-----------------3/5---|
A|-----5-------5-4-3-----3-------1-4-2-----0-------1/3-5-|
E|-0-3---3-0-3-3-2-1-0-1---1-0-1---2-0-0-2---2-0-2-----3-|
PM . . . . . .       . . . . . .       . . . . . .   
Tap to rate this tab
 
# A B C D E F G H I J K L M N O P Q R S T U V W X Y Z