Song name
# A B C D E F G H I J K L M N O P Q R S T U V W X Y Z

Washya - Justified tab

-----------------------------------------------------------------------------
                  Justified   - Washya
-----------------------------------------------------------------------------
Tuning: Drop D (ebgDAD)
Intro
e|-----------------------------|
b|-----------------------------|
g|-----------------------------|
D|-----5-3-5-------3-2---------|
A|-----------5-3-5-----3-5-----|
D|-0-0---------------------0-0-|
PM . .                     . . 

Chorus/Intro 2
e|-----------------------------|
b|-----------------------------|
g|-----------------------------|
D|-----5-3-5-------5-4---------|
A|-0-0-3-1-3-5-3-5-3-2-3-5-0-0-|
D|-0-0-------5-3-5-----3-5-0-0-|
PM . .                     . . 

Verses
e|-----------------------------------------------------|
b|-----------------------------------------------------|
g|-----------------------------------------------------|
D|-----------------------------------------------------|
A|-----------3-----------------3-2---------------------|
D|-0-0-5-6-5---5-6-3-5-6-5-0-0-----3-6-5-6-3-5-3-2-0-0-|
PM . . . . .   . . . . . . . .     . . . . . . . . . . 

 
Tap to rate this tab
# A B C D E F G H I J K L M N O P Q R S T U V W X Y Z