Song name
# A B C D E F G H I J K L M N O P Q R S T U V W X Y Z

White Stripes - You Dont Know What Love Is You Just Do What Youre Told tab

             You don't know what love is (just do as you're told)               


                                                               The White Stripes
Track 1
     E  S S  Q    S S  S S Q       E  S S  Q    S S S S S S E   
E||-----0-0--------------0-L----|-----3-3p-2----------0--------|
B||-----2-2p-0------------------|-----3-3---------0-2---2-0----|
G||-----------------0h-1--------|---------------------------2--|
D||-----------------2-----------|------------------------------|
A||-----------------------------|------------------------------|
E||-----------------------------|------------------------------|
 
 
  E  S S  Q    S S  S S Q       E  S S  Q    S S S S S S E   
-----0-0--------------0-L----|-----3-3p-2----------0--------|
-----2-2p-0------------------|-----3-3---------0-2---2-0----|
-----------------0h-1--------|---------------------------2--|
-----------------2-----------|------------------------------|
-----------------------------|------------------------------|
-----------------------------|------------------------------|
 
 
  S S  S S S S S S S S S S Q       E  S S  Q    S S S S S S E   
----0----0---------------0-L----|-----3-3p-2----------0--------|
----0h-2---2-0-----------0-L----|-----3-3---------0-2---2-0----|
---------------2-0-1------------|---------------------------2--|
---------------------2----------|------------------------------|
--------------------------------|------------------------------|
-----------------------0--------|------------------------------|
 
 
  E  S S  Q    S S  S S Q       E  S S  Q       W                 
-----0-0--------------0-L----|-----3-3p-2----|-------------------|
-----2-2p-0------------------|-----3-3-------|-------------------|
-----------------0h-1--------|---------------|--2----------------|
-----------------2-----------|---------------|--2----------------|
-----------------------------|---------------|--0----------------|
-----------------------------|---------------|-------------------|
 
 
  S S S S S S E  S S S S S S E     Q    Q    E  E  Q     
--------0--------------0--------|--5---------0--0-------|
----0-2---2-0------0-2---2-0----|--2---------0--0-------|
--------------2--------------2--|--2---------1--1-------|
--------------------------------|--2---------2--2-------|
--------------------------------|--0---------2--2-------|
--------------------------------|------------0--0-------|
 
 
  Q    Q    E  E  Q       Q    Q    E  E  Q       Q    Q    E  E  Q     
--2---------0--0-------|--5---------0--0-------|--2---------0--0-------|
--3---------2--2-------|--2---------0--0-------|--3---------0--0-------|
--2---------2--2-------|--2---------1--1-------|--2---------1--1-------|
--0---------2--2-------|--2---------2--2-------|--0---------2--2-------|
------------0--0-------|--0---------2--2-------|------------2--2-------|
-----------------------|------------0--0-------|------------0--0-------|
 
 
                          |----3----|    3             
  Q    Q    E  E  Q       Q    Q    Q    H.            
--5---------0--0-------|------------------------------|
--2---------0--0-------|------------------------------|
--2---------1--1-------|------------2----L------------|
--2---------2--2-------|--5---------2----L------------|
--0---------2--2-------|--3----5----0----L------------|
------------0--0-------|-------3----------------------|
 
 
  E  E  E.  S E  E  E.  S    E  E  E.  S    Q    Q    Q    Q     
------------0-----------0-|------------2-|----------------------|
--------2---2-------0---0-|--3-----3---3-|--2----2----2----2----|
-----2--2--------1--1---1-|--2--2--2---2-|--2----2----2----2----|
--2--2--2--------2--2---2-|--0--0--0-----|--2----2----2----2----|
--0--0--0-----2--2--2-----|--------------|--0----0----0----0----|
--------------0--0--------|--------------|----------------------|
 
 
  Q    Q    E  E  Q       Q    Q    E  E  Q       Q    Q    E  E  Q     
--5---------0--0-------|--2---------0--0-------|--5---------0--0-------|
--2---------0--0-------|--3---------2--2-------|--2---------0--0-------|
--2---------1--1-------|--2---------2--2-------|--2---------1--1-------|
--2---------2--2-------|--0---------2--2-------|--2---------2--2-------|
--0---------2--2-------|------------0--0-------|--0---------2--2-------|
------------0--0-------|-----------------------|------------0--0-------|
 
 
                                                  |----3----|    3             
  Q    Q    E  E  Q       Q    Q    E  E  Q       Q    Q    Q    H.            
--2---------0--0-------|--5---------0--0-------|------------------------------|
--3---------0--0-------|--2---------0--0-------|------------------------------|
--2---------1--1-------|--2---------1--1-------|------------2----L------------|
--0---------2--2-------|--2---------2--2-------|--5---------2----L------------|
------------2--2-------|--0---------2--2-------|--3----5----0----L------------|
------------0--0-------|------------0--0-------|-------3----------------------|
 
 
  H        H           S  S S S S  S S S S  E.  Q       H         
--------------------|--------------------------------|-----------|
--------------------|--------------------------------|-----------|
--------------------|----------------0-0-2p-0---L----|--L--------|
-----------0--------|-------0-0-0h-2-----------------|-----------|
--2--------2--------|--0h-2--------------------------|-----------|
--0--------3--------|--------------------------------|-----------|
 
 
  E  S S  Q    S S  S S Q       E  S S  Q    S S S S S S E   
-----0-0--------------0-L----|-----3-3p-2----------0--------|
-----2-2p-0------------------|-----3-3---------0-2---2-0----|
-----------------0h-1--------|---------------------------2--|
-----------------2-----------|------------------------------|
-----------------------------|------------------------------|
-----------------------------|------------------------------|
 
 
  E  S S  Q    S S  S S Q       E  S S  Q    S S S S S S E   
-----0-0--------------0-L----|-----3-3p-2----------0--------|
-----2-2p-0------------------|-----3-3---------0-2---2-0----|
-----------------0h-1--------|---------------------------2--|
-----------------2-----------|------------------------------|
-----------------------------|------------------------------|
-----------------------------|------------------------------|
 
 
  S S  S S S S S S S S S S Q       E  S S  Q    S S S S S S E   
----0----0---------------0-L----|-----3-3p-2----------0--------|
----0h-2---2-0-----------0-L----|-----3-3---------0-2---2-0----|
---------------2-0-1------------|---------------------------2--|
---------------------2----------|------------------------------|
--------------------------------|------------------------------|
-----------------------0--------|------------------------------|
 
 
  E  S S  Q    S S  S S Q       E  S S  Q       H.           E  S S  
-----0-0--------------0-L----|-----3-3p-2----|----------------------|
-----2-2p-0------------------|-----3-3-------|----------------------|
-----------------0h-1--------|---------------|--2------------L------|
-----------------2-----------|---------------|--2------------L--2-2-|
-----------------------------|---------------|--0------------L--2-2-|
-----------------------------|---------------|------------------0-0-|
 
 
  E  S S E  E  Q    E  S S    E  S S E  E  Q    E  S S  
---------------------------|---------------------------|
-----3-3-3-----------------|---------------------------|
-----0-0-0--2--2----L--9-9-|--9--5-5-5--2--2----L------|
--2--0-0-0--2--2----L--9-9-|--9--5-5-5--2--2----L--2-2-|
--2---------0--0----L--7-7-|--7--3-3-3--0--0----L--2-2-|
--0--3-3-3-----------------|-----------------------0-0-|
 
 
  E  S S E  E  Q    E  S S    E  S S E  E  Q    E  S S  
---------------------------|-----------------------0-0-|
-----3-3-3-----------------|-----------------------0-0-|
-----0-0-0--2--2----L------|-----5-5-5--2--2----L--1-1-|
--2--0-0-0--2--2----L--2-2-|--2--5-5-5--2--2----L--2-2-|
--2---------0--0----L--2-2-|--2--3-3-3--0--0----L--2-2-|
--0--3-3-3-------------0-0-|--0--------------------0-0-|
 
 
  E  S S E  E  Q    E  S S    E  S S E  E  E  S S E  S S  
--0--3-3-3--0--0----L--7-7-|--7--------------------------|
--0--3-3-3--2--2----L--9-9-|--9--5-5-5--2--2-------------|
--1--0-0-0--2--2----L--9-9-|--9--5-5-5--2--2-------------|
--2--0-0-0--2--2----L--9-9-|--9--5-5-5--2--2--2-2-2--2-2-|
--2--2-2-2--0--0----L--7-7-|--7--3-3-3--0--0--2-2-2--2-2-|
--0--3-3-3-----------------|------------------0-0-0--0-0-|
 
 
  E  S S E  E  Q    E  S S    E  S S E  E     W                 
-----3-3-3--0--0----L------|---------------|-------------------|
-----3-3-3--2--2----L--9-9-|--9--5-5-5--2--|--2----------------|
-----0-0-0--2--2----L--9-9-|--9--5-5-5--2--|--2----------------|
--2--0-0-0--2--2----L--9-9-|--9--5-5-5--2--|--2----------------|
--2--2-2-2--0--0----L--7-7-|--7--3-3-3--0--|--0----------------|
--0--3-3-3-----------------|---------------|-------------------|
 
 
  S S S S S S E  S S S S S S E     Q    Q    E  E  Q     
--------0--------------0--------|--5---------0--0-------|
----0-2---2-0------0-2---2-0----|--2---------0--0-------|
--------------2--------------2--|--2---------1--1-------|
--------------------------------|--2---------2--2-------|
--------------------------------|--0---------2--2-------|
--------------------------------|------------0--0-------|
 
 
  Q    Q    E  E  Q       Q    Q    E  E  Q       Q    Q    E  E  Q     
--2---------0--0-------|--5---------0--0-------|--2---------0--0-------|
--3---------2--2-------|--2---------0--0-------|--3---------0--0-------|
--2---------2--2-------|--2---------1--1-------|--2---------1--1-------|
--0---------2--2-------|--2---------2--2-------|--0---------2--2-------|
------------0--0-------|--0---------2--2-------|------------2--2-------|
-----------------------|------------0--0-------|------------0--0-------|
 
 
                          |----3----|    3             
  Q    Q    E  E  Q       Q    Q    Q    H.            
--5---------0--0-------|------------------------------|
--2---------0--0-------|------------------------------|
--2---------1--1-------|------------2----L------------|
--2---------2--2-------|--5---------2----L------------|
--0---------2--2-------|--3----5----0----L------------|
------------0--0-------|-------3----------------------|
 
 
                                                                    W         
  E  E  E.  S E  E  E.  S    E  E  E.  S    E   E   S  S  S  S  E   E   Q     
------------0-----------0-|------------2-|-----------------------------------|
--------2---2-------0---0-|--3-----3---3-|-----15--15-14-12-14--L--10---L----|
-----2--2--------1--1---1-|--2--2--2---2-|-----------------------------------|
--2--2--2--------2--2---2-|--0--0--0-----|-----------------------------------|
--0--0--0-----2--2--2-----|--------------|-----------------------------------|
--------------0--0--------|--------------|-----------------------------------|
 
 
  Q    Q    E  E  Q       Q    Q    E  E  Q       Q    Q    E  E  Q     
--5---------0--0-------|--2---------0--0-------|--5---------0--0-------|
--2---------0--0-------|--3---------2--2-------|--2---------0--0-------|
--2---------1--1-------|--2---------2--2-------|--2---------1--1-------|
--2---------2--2-------|--0---------2--2-------|--2---------2--2-------|
--0---------2--2-------|------------0--0-------|--0---------2--2-------|
------------0--0-------|-----------------------|------------0--0-------|
 
 
                                                  |----3----|    3             
  Q    Q    E  E  Q       Q    Q    E  E  Q       Q    Q    Q    H.            
--2---------0--0-------|--5---------0--0-------|------------------------------|
--3---------0--0-------|--2---------0--0-------|------------------------------|
--2---------1--1-------|--2---------1--1-------|------------2----L------------|
--0---------2--2-------|--2---------2--2-------|--5---------2----L------------|
------------2--2-------|--0---------2--2-------|--3----5----0----L------------|
------------0--0-------|------------0--0-------|-------3----------------------|
 
 
  H           Q    E.  S Q    E  E     Q    E.  S    Q    E.  S Q    E  E   
-----------|------------------------|-------------|------------------------|
-----------|------------------------|-------------|------------------------|
-----------|--0----0---0---------0--|-----------0-|--0----0---0---------0--|
--2--------|--0----0---0-0----0--0--|--2----2---0-|--0----0---0-0----0--0--|
--2--------|--2----2-----2----2-----|--2----2-----|--2----2-----2----2-----|
--0--------|--3----3---3-3----3-----|--0----0-----|--3----3---3-3----3-----|
 
 
  Q    E.  S    Q    E.  S Q    E  E     S S E  Q    H         
-------------|------------------------|-----------------------|
-------------|------------------------|-----------------------|
-----------0-|--0----0---0------------|--0-0------------------|
--2----2---0-|--0----0---0-0----0--0--|--0-0------------------|
--2----2-----|--2----2-----2----2--2--|--2-2------------------|
--0----0-----|--3----3---3-3----3--3--|--3-3------------------|
 
 
  E   E   S  S  S  S  E   E    Q       E   S  S  E   E   Q    Q     
------------------------------------|------------------------------|
-----17--17-15-14-15--L--17~---L----|-----15-14-15--17---L---------|
------------------------------------|------------------------------|
------------------------------------|------------------------------|
------------------------------------|------------------------------|
------------------------------------|------------------------------|
 
 
  E   E   S  S  S  S  E     E  S  S  S  S  
------------------------------------------|
-----17--17-15-14-15-15br--------15-14-15-|
---------------------------14-------------|
------------------------------------------|
------------------------------------------|
------------------------------------------|
 
 
                           |---3---|              
   E     S  S  E     S  S  S   S   S  E   E   E   
-------------------------------------------------|
--15br--14-15-15br--14-15-17p-15p-14-------------|
-------------------------------------14--16--14--|
-------------------------------------------------|
-------------------------------------------------|
-------------------------------------------------|
 
 
  E   E    S  S  S  S  E   E  E   E   
-----17b--17-15-------15--17-----19--|
----------------17-17----------------|
-------------------------------------|
-------------------------------------|
-------------------------------------|
-------------------------------------|
 
 
   S  S  S  S  S  S  S  S  S  S  E    Q     
--19-20-19-17-17-19-17-15-15-17-17b--15----|
-------------------------------------------|
-------------------------------------------|
-------------------------------------------|
-------------------------------------------|
-------------------------------------------|
 
 
  E   S  S  S  E  S  E.     S   Q        S  S  S  S  E   S  S  E.     S   Q     
-----19-17-15-------15br-------------|-----------12--L-------------------------|
--------------17-----------15~--L----|--12-13-15--------15-13-12br-------------|
-------------------------------------|-------------------------------14~--L----|
-------------------------------------|-----------------------------------------|
-------------------------------------|-----------------------------------------|
-------------------------------------|-----------------------------------------|
 
 
  E   E.     S E   Q         S   S E      Q      Q     S  S  E     Q     
-----19br---17----19brb----(19)-17----|---------------------------------|
--------------------------------------|--20b----17----15-17--Lbr---L----|
--------------------------------------|---------------------------------|
--------------------------------------|---------------------------------|
--------------------------------------|---------------------------------|
--------------------------------------|---------------------------------|
 
 
  S  S  S   S   S   S   E    S  S  S   S   S   S   E     
----12-12--12--12--12--12------12-12--12--12--12--12----|
----14-14b-14b-14b-14b-14b~----14-14b-14b-14b-14b-14b~--|
--------------------------------------------------------|
--------------------------------------------------------|
--------------------------------------------------------|
--------------------------------------------------------|
 
 
  S  E     S  S  S  S  S  S  S   E   Q       H         
----17br--15------------------------------|-----------|
-------------17-15-14-15-14---------------|-----------|
----------------------------14~--L---L----|-----------|
------------------------------------------|-----------|
------------------------------------------|-----------|
------------------------------------------|-----------|
 
 
  S S S S S S E  S S S S S S E     W                  
--------0--------------0--------|-------------------||
----0-2---2-0------0-2---2-0----|-------------------||
--------------2--------------2--|--2----------------||
--------------------------------|--2----------------||
--------------------------------|--0----------------||
--------------------------------|-------------------||
 
 
 
 
Duration Legend
---------------
W - whole
H - half
Q - quarter
E - 8th
S - 16th
T - 32nd
X - 64th
. - note dotted
|-n-|  - n-tuplets
 
 
Tablature Legend
----------------
L - tied note
x - dead note
g - grace note
(n) - ghost note
> - accentuded note
NH - natural harmonic
AH - artificial harmonic
TH - tapped harmonic
SH - semi harmonic
PH - pitch harmonic
h - hammer on
p - pull off
b - bend
br - bendRelease
pb - preBend
pbr - preBendRelease
brb - bendReleaseBend
\n/ - tremolo bar dip
\n - tremolo bar dive
-/n - tremolo bar Release up
/n\ - tremolo bar inverted dip
/n - tremolo bar return
-\n - tremolo bar Release down
S - shift slide
s - legato slide
/ -  slide into from below or out of upwards
\ -  slide into from above or out of downwards
~ - vibrato
W - wide vibrato
tr - tril'
TP - tremolo picking
T - tapping
S - slap
P - pop
< - fade in
^ - brush up
v - brush down

Tap to rate this tab
 
# A B C D E F G H I J K L M N O P Q R S T U V W X Y Z