Song name
# A B C D E F G H I J K L M N O P Q R S T U V W X Y Z

Whitesnake - Youre Gonna Break My Heart Again tab

-----------------------------------------------------------------------------
		                  
         You're Gonna Break My Heart Again - Whitesnake (GUITAR)
            
-----------------------------------------------------------------------------
Tabbed by: Scotto10

Tuning: standard tuning

=============================================================================
            
Guitar - rhythm



     H        E  E  E  E     Q    Q    Q.     E     Q.     Q    E  E  E   
E||-----------------------|----------------------|-----------------------|
B||-----------------------|-------6----5------3--|--L------5-------------|
G||-----------------------|-------5----5------3--|--L------5-------------|
D||-----------------------|-------5----5------3--|--L------5-------------|
A||-----------------------|----------------------|-----------------------|
D||--------------3--2--0--|--L-------------------|--------------0--0--0--|


                                     PM                               
  Q    Q    Q.     E     Q.     Q    E  E  E     Q    Q    Q.     E   
----------------------|-----------------------|----------------------|
-------6----5------3--|--L------5-------------|-------6----5------3--|
-------5----5------3--|--L------5-------------|-------5----5------3--|
-------5----5------3--|--L------5-------------|-------5----5------3--|
----------------------|-----------------------|----------------------|
--L-------------------|--------------3--2--0--|--L-------------------|


  Q.     Q.      Q        S S S S S S S S S S S S S S S S  
-----------------------|----------------------------------|
--L------5-------------|----------------------------------|
--L------5-------------|----------------------------------|
--L------5-------------|------------------0-0-----0-0-2-2-|
-----------------------|--1-1-0-0-1-1-3-3-----3-3---------|
----------------12\----|----------------------------------|


  Q    Q    Q.     E     Q.     Q    E  E  E     Q    Q    Q.     E   
----------------------|-----------------------|----------------------|
-------6----5------3--|--L------5-------------|-------6----5------3--|
-------5----5------3--|--L------5-------------|-------5----5------3--|
-------5----5------3--|--L------5-------------|-------5----5------3--|
----------------------|-----------------------|----------------------|
--0-------------------|--------------0--0--0--|--L-------------------|


              PM                                                       
  Q.     Q    E  E  E     Q    Q    Q.     E     Q.     Q.      Q      
-----------------------|----------------------|-----------------------|
--L------5-------------|-------6----5------3--|--L------5-------------|
--L------5-------------|-------5----5------3--|--L------5-------------|
--L------5-------------|-------5----5------3--|--L------5-------------|
-----------------------|----------------------|-----------------------|
--------------3--2--0--|--L-------------------|----------------12\----|


  S S S S S S S S S S S S S S S S    S S S S S S S S S S S S S S E    
----------------------------------|----------------------------------|
----------------------------------|----------------------------------|
----------------------------------|----------------------------------|
----------------------------------|--------------5-5-7-7-5-5---------|
--1-1-0-0-1-1-3-3-5-5-3-3-5-5-7-7-|--8-8-7-7-8-8-------------8-8-8\--|
----------------------------------|----------------------------------|


  Verse                                                              
  Q.     E  H           E  E  Q    Q    Q       Q    E  H        E   
---------------------|-----------------------|----------------------|
--8------6--L--------|--8-----6----5----6----|--5----3--3-----------|
--7------7--L--------|--7-----7----5----7----|--5----3--3-----------|
--7------7--L--------|--7-----7----5----7----|--5----3--3-----------|
---------------------|-----------------------|-------------------0--|
---------------------|-----------------------|----------------------|


  S S S S S S S S S S S S S S S S    Q.     H        E   
----------------------------------|---------------------|
----------------------------------|--8------6-----------|
----------------------------------|--7------7-----------|
----------------------------------|--7------7-----------|
--1-1-0-0-1-1-3-3-5-5-3-3-1-1-0-0-|---------------------|
----------------------------------|---------------------|


  E  E  Q    Q    Q       Q    E  H        E   
-----------------------|----------------------|
--8-----6----5----6----|--5----3--3-----------|
--7-----7----5----7----|--5----3--3-----------|
--7-----7----5----7----|--5----3--3-----------|
-----------------------|-------------------0--|
-----------------------|----------------------|


                                PH                           
  S S S S S S S S S S S S S S   E     E  E  Q    Q    E  E   
-----------------------------------|------------------------|
-----------------------------------|------------------------|
-----------------------------------|-------------3----------|
-----------------------------------|-------------3----------|
--1-1-0-0-1-1-3-3-5-5-3-3-1-1------|------------------------|
------------------------------<>5--|--L--3--5---------0--7--|


  E  E  Q    Q    E  E     E  E  Q    Q    E  E     E  E  Q    H         
------------------------|-------------6----------|-------------8--------|
------------------------|-------------6----------|-------------8--------|
-------------5----------|-------------3----------|-------------5--------|
-------------5----------|-------------3----------|-------------5--------|
---------------------1--|--L--0--1---------------|----------------------|
--L--5--7---------0-----|------------------0--7--|--L--5--7-------------|


                                          PM PM PM PM PM PM PM PM  
  W                   W                   E  E  E  E  E  E  E  E   
-------------------|-------------------|--------------------------|
--8----------------|--6----------------|--4--4--4--3--3--3--4--4--|
--7----------------|--5----------------|--3--3--3--3--3--3--3--3--|
--5----------------|--3----------------|--1--1--1--1--1--1--1--1--|
--5----------------|--3----------------|--1--1--1--1--1--1--1--1--|
--5----------------|--3----------------|--1--1--1--1--1--1--1--1--|


  PM PM PM PM PM PM PM PM    PM PM                                       PM  
  E  E  E  E  E  E  E  E     E  E  E  E  Q.     E     Q.     Q.      E   E   
--------------------------|------------------------|------------------------|
--4--3--3--3--4--4--4--4--|--------6-----5------3--|--L------5--------------|
--3--3--3--3--3--3--3--3--|--------5-----5------3--|--L------5--------------|
--1--1--1--1--1--1--1--1--|--------5-----5------3--|--L------5--------------|
--1--1--1--1--1--1--1--1--|------------------------|------------------------|
--1--1--1--1--1--1--1--1--|--0--0------------------|----------------12\--0--|


  E  E  E  E  Q.     E     Q.     Q.     E  E     Q    E  E  Q.     E   
------------------------|----------------------|-----------------------|
--------6-----5------3--|--L------5------------|-------6-----5------3--|
--------5-----5------3--|--L------5------------|-------5-----5------3--|
--------5-----5------3--|--L------5------------|-------5-----5------3--|
------------------------|----------------------|-----------------------|
--0--0------------------|-------------------0--|--0--------------------|


  Q.     Q     Q.         Q    E   E  Q.     E   
-----------------------|------------------------|
--L------5-------------|------------------------|
--L------5-------------|--3-----------3------5--|
--L------5-------------|--3-----------3------5--|
-----------------------|--1----3s--5---------3--|
--------------12\------|------------------------|


                                    Verse                  
                                                    PM PM  
  E  S S S S S S S S S S S S S S    Q.     H        S  S   
---------------------------------|------------------------|
-----------------6-6-5-5---------|--8------6--------------|
--L----------5-5---------5-5-----|--7------7--------------|
--L------5-5-----------------5-5-|--7------7--------------|
--L--3-3-------------------------|------------------------|
---------------------------------|------------------0--0--|


  E  E  E  E  Q    Q       Q.     E  Q.     E   
------------------------|----------------------|
--8-----6-----5----6----|--5------3--3---------|
--7-----7-----5----7----|--5------3--3---------|
--7-----7-----5----7----|--5------3--3---------|
------------------------|-------------------0--|
------------------------|----------------------|


                                     Verse               
  S S S S S S S S S S S S S S S S    Q.     E  H         
----------------------------------|---------------------|
----------------------------------|--8------6--L--------|
----------------------------------|--7------7--L--------|
----------------------------------|--7------7--L--------|
--1-1-0-0-1-1-3-3-5-5-3-3-1-1-0-0-|---------------------|
----------------------------------|---------------------|


  E  E  Q    Q    Q       Q.     E  Q.     E   
-----------------------|----------------------|
--8-----6----5----6----|--5------3--3---------|
--7-----7----5----7----|--5------3--3---------|
--7-----7----5----7----|--5------3--3---------|
-----------------------|-------------------0--|
-----------------------|----------------------|


                                     Verse               
  S S S S S S S S S S S S S S S S    Q.     E  H         
----------------------------------|---------------------|
----------------------------------|--8------6--L--------|
----------------------------------|--7------7--L--------|
----------------------------------|--7------7--L--------|
--1-1-0-0-1-1-3-3-5-5-3-3-1-1-0-0-|---------------------|
----------------------------------|---------------------|


  E  E  Q    Q    Q       Q.     E  Q.     E   
-----------------------|----------------------|
--8-----6----5----6----|--5------3--3---------|
--7-----7----5----7----|--5------3--3---------|
--7-----7----5----7----|--5------3--3---------|
-----------------------|-------------------0--|
-----------------------|----------------------|


                                PH                           
  S S S S S S S S S S S S S S   E     E  E  Q    Q    E  E   
-----------------------------------|------------------------|
-----------------------------------|------------------------|
-----------------------------------|-------------3----------|
-----------------------------------|-------------3----------|
--1-1-0-0-1-1-3-3-5-5-3-3-1-1------|------------------------|
------------------------------<>5--|--L--3--5---------0--7--|


  E  E  Q    Q    E  E     E  E  Q    Q    E  E     E  E  Q    H         
------------------------|-------------6----------|-------------8--------|
------------------------|-------------6----------|-------------8--------|
-------------5----------|-------------3----------|-------------5--------|
-------------5----------|-------------3----------|-------------5--------|
---------------------1--|--L--0--1---------------|----------------------|
--L--5--7---------0-----|------------------0--7--|--L--5--7-------------|


                                          PM PM PM PM PM PM PM PM  
  W                   W                   E  E  E  E  E  E  E  E   
-------------------|-------------------|--------------------------|
--8----------------|--6----------------|--4--4--4--3--3--3--4--4--|
--7----------------|--5----------------|--3--3--3--3--3--3--3--3--|
--5----------------|--3----------------|--1--1--1--1--1--1--1--1--|
--5----------------|--3----------------|--1--1--1--1--1--1--1--1--|
--5----------------|--3----------------|--1--1--1--1--1--1--1--1--|


  PM PM PM PM PM PM PM PM    PM PM                                       PM  
  E  E  E  E  E  E  E  E     E  E  E  E  Q.     E     Q.     Q.      E   E   
--------------------------|------------------------|------------------------|
--4--3--3--3--4--4--4--4--|--------6-----5------3--|--L------5--------------|
--3--3--3--3--3--3--3--3--|--------5-----5------3--|--L------5--------------|
--1--1--1--1--1--1--1--1--|--------5-----5------3--|--L------5--------------|
--1--1--1--1--1--1--1--1--|------------------------|------------------------|
--1--1--1--1--1--1--1--1--|--0--0------------------|----------------12\--0--|


  E  E  E  E  Q.     E     Q.     Q.     E  E     Q    E  E  Q.     E   
------------------------|----------------------|-----------------------|
--------6-----5------3--|--L------5------------|-------6-----5------3--|
--------5-----5------3--|--L------5------------|-------5-----5------3--|
--------5-----5------3--|--L------5------------|-------5-----5------3--|
------------------------|----------------------|-----------------------|
--0--0------------------|-------------------0--|--0--------------------|


  Q.     Q     Q.         Q    E   E  Q.     E   
-----------------------|------------------------|
--L------5-------------|------------------------|
--L------5-------------|--3-----------3------5--|
--L------5-------------|--3-----------3------5--|
-----------------------|--1----3s--5---------3--|
--------------12\------|------------------------|


  E  S S S S S S S S S S S S S S    W                   W                 
---------------------------------|-------------------|-------------------|
-----------------6-6-5-5---------|-------------------|-------------------|
--L----------5-5---------5-5-----|-------------------|-------------------|
--L------5-5-----------------5-5-|-------------------|-------------------|
--L--3-3-------------------------|-------------------|-------------------|
---------------------------------|--0----------------|--0----------------|


  W                   W                   W                   W                 
-------------------|-------------------|-------------------|-------------------|
-------------------|-------------------|-------------------|-------------------|
-------------------|-------------------|-------------------|-------------------|
-------------------|-------------------|-------------------|-------------------|
-------------------|-------------------|-------------------|-------------------|
--0----------------|--0----------------|--0----------------|--0----------------|


  W                   W                   W                   W                 
-------------------|-------------------|-------------------|-------------------|
-------------------|-------------------|-------------------|-------------------|
-------------------|-------------------|-------------------|-------------------|
-------------------|-------------------|-------------------|-------------------|
-------------------|-------------------|-------------------|-------------------|
--0----------------|--0----------------|--0----------------|--L----------------|


  W                   W                   W                   W                 
-------------------|-------------------|-------------------|-------------------|
-------------------|-------------------|-------------------|-------------------|
-------------------|-------------------|-------------------|-------------------|
-------------------|-------------------|-------------------|-------------------|
-------------------|-------------------|-------------------|-------------------|
--L----------------|--L----------------|--L----------------|--L----------------|


  W                   W                   H         Q.     E   
-------------------|-------------------|----------------------|
-------------------|-------------------|----------------------|
-------------------|-------------------|----------------------|
-------------------|-------------------|--5\---------------7--|
-------------------|-------------------|--5\---------------7--|
--L----------------|--L----------------|--5\---------------7--|


  H         H           H         Q.     E     H         H         
---------------------|----------------------|---------------------|
---------------------|----------------------|---------------------|
---------------------|----------------------|---------------------|
--7\-----------------|--8\---------------7--|--7\-----------------|
--7\-----------------|--8\---------------7--|--7\-----------------|
--7\-----------------|--8\---------------7--|--7\-----------------|


                                          PM PM PM PM PM PM PM PM  
  W                   W                   E  E  E  E  E  E  E  E   
-------------------|-------------------|--------------------------|
--8----------------|--6----------------|--4--4--4--3--3--3--4--4--|
--7----------------|--5----------------|--3--3--3--3--3--3--3--3--|
--5----------------|--3----------------|--1--1--1--1--1--1--1--1--|
--5----------------|--3----------------|--1--1--1--1--1--1--1--1--|
--5----------------|--3----------------|--1--1--1--1--1--1--1--1--|


  PM PM PM PM PM PM PM PM    PM PM                                      PM  
  E  E  E  E  E  E  E  E     E  E  Q    Q.     E     Q.     Q.      E   E   
--------------------------|-----------------------|------------------------|
--4--3--3--3--4--4--4--4--|--------6----5------3--|--L------5--------------|
--3--3--3--3--3--3--3--3--|--------5----5------3--|--L------5--------------|
--1--1--1--1--1--1--1--1--|--------5----5------3--|--L------5--------------|
--1--1--1--1--1--1--1--1--|-----------------------|------------------------|
--1--1--1--1--1--1--1--1--|--0--0-----------------|----------------12\--0--|


                                                 PM PM                 
  E  E  Q    Q.     E     Q.     Q.     E  E     E  E  Q    Q.     E   
-----------------------|----------------------|-----------------------|
--------6----5------3--|--L------5------------|--------6----5------3--|
--------5----5------3--|--L------5------------|--------5----5------3--|
--------5----5------3--|--L------5------------|--------5----5------3--|
-----------------------|----------------------|-----------------------|
--0--0-----------------|-------------------0--|--0--0-----------------|


                          PM PM                                      PM  
  Q.     Q.      Q        E  E  Q    Q.     E     Q.     Q.      E   E   
-----------------------|-----------------------|------------------------|
--L------5-------------|--------6----5------3--|--L------5--------------|
--L------5-------------|--------5----5------3--|--L------5--------------|
--L------5-------------|--------5----5------3--|--L------5--------------|
-----------------------|-----------------------|------------------------|
----------------12\----|--0--0-----------------|----------------12\--0--|


  PM PM                                          PM PM                 
  E  E  Q    Q.     E     Q.     Q.     E  E     E  E  Q    Q.     E   
-----------------------|----------------------|-----------------------|
--------6----5------3--|--L------5------------|--------6----5------3--|
--------5----5------3--|--L------5------------|--------5----5------3--|
--------5----5------3--|--L------5------------|--------5----5------3--|
-----------------------|----------------------|-----------------------|
--0--0-----------------|-------------------0--|--0--0-----------------|


                          PM PM                                        
  Q.     Q.      Q        E  E  Q    Q.     E     Q.     Q.     E  E   
-----------------------|-----------------------|----------------------|
--L------5-------------|--------6----5------3--|--L------5------------|
--L------5-------------|--------5----5------3--|--L------5------------|
--L------5-------------|--------5----5------3--|--L------5------------|
-----------------------|-----------------------|----------------------|
----------------12\----|--0--0-----------------|-------------------0--|


                                            PM PM PM PM PM PM PM PM  
  H.           E  E     W                   E  E  E  E  E  E  E  E   
---------------------|-------------------|--------------------------|
---------------------|-------------------|--4--4--4--3--3--3--4--4--|
---------------------|-------------------|--3--3--3--3--3--3--3--3--|
--5------------L--3--|--L----------------|--1--1--1--1--1--1--1--1--|
--5------------L--3--|--L----------------|--1--1--1--1--1--1--1--1--|
--5------------L--3--|--L----------------|--1--1--1--1--1--1--1--1--|


  PM PM PM PM PM PM PM PM    PM PM PM PM PM PM PM PM PM  
  E  E  E  E  E  E  E  E     E  E  E  E  E  E  E  S  S   
--------------------------|-----------------------------|
--4--3--3--3--4--4--4--4--|-----------------------------|
--3--3--3--3--3--3--3--3--|-----------------------------|
--1--1--1--1--1--1--1--1--|--5--5--5--7--7--7--7--5--5--|
--1--1--1--1--1--1--1--1--|-----------------------------|
--1--1--1--1--1--1--1--1--|-----------------------------|


  PM PM PM PM PM PM PM PM    PM PM PM PM PM PM PM PM  
  E  E  E  E  E  E  E  E     E  E  E  E  E  E  E  E   
--------------------------|--------------------------|
--------------------------|--------------------------|
--------------------------|--------------------------|
--5--5--7--7--5--5--7--7--|--5--5--5--3--3--3--3--3--|
--------------------------|--------------------------|
--------------------------|--------------------------|


  PM PM PM PM    PM PM           PM PM PM PM PM PM PM PM PM  
  E  E  S  S  E  S  S  Q.        E  E  E  E  E  E  E  S  S   
------------------------------|-----------------------------|
--------------3--------5------|-----------------------------|
--------------3--------5------|-----------------------------|
--3--3--3--3--3--3--3--5------|--5--5--5--7--7--7--7--5--5--|
------------------------------|-----------------------------|
------------------------------|-----------------------------|


  PM PM PM PM PM PM PM PM    PM PM PM PM PM PM PM PM  
  E  E  E  E  E  E  E  E     E  E  E  E  E  E  E  E   
--------------------------|--------------------------|
--------------------------|--------------------------|
--------------------------|--------------------------|
--5--5--7--7--5--5--7--7--|--5--5--5--3--3--3--3--3--|
--------------------------|--------------------------|
--------------------------|--------------------------|


  PM PM PM             PH                                                     
  E  E  E  Q    Q      E      E  E  Q    Q    E  E     E  E  Q    Q    E  E   
---------------------------|------------------------|------------------------|
-----------6----5----------|------------------------|------------------------|
-----------5----5----------|-------------3----------|-------------5----------|
--3--3--3--5----5----------|-------------3----------|-------------5----------|
---------------------------|------------------------|---------------------1--|
---------------------<>5~--|--L--3--5---------0--7--|--L--5--7---------0-----|


  E  E  Q    Q    E  E     E  E  Q    H           W                 
-------------6----------|-------------8--------|-------------------|
-------------6----------|-------------8--------|--8----------------|
-------------3----------|-------------5--------|--7----------------|
-------------3----------|-------------5--------|--5----------------|
--L--0--1---------------|----------------------|--5----------------|
------------------0--7--|--L--5--7-------------|--5----------------|


                      PM PM PM PM PM PM PM PM    PM PM PM PM PM PM PM PM  
  W                   E  E  E  E  E  E  E  E     E  E  E  E  E  E  E  E   
-------------------|--------------------------|--------------------------|
--6----------------|--4--4--4--3--3--3--4--4--|--4--3--3--3--4--4--4--4--|
--5----------------|--3--3--3--3--3--3--3--3--|--3--3--3--3--3--3--3--3--|
--3----------------|--1--1--1--1--1--1--1--1--|--1--1--1--1--1--1--1--1--|
--3----------------|--1--1--1--1--1--1--1--1--|--1--1--1--1--1--1--1--1--|
--3----------------|--1--1--1--1--1--1--1--1--|--1--1--1--1--1--1--1--1--|


  PM PM                                       PM                           
  E  E  E  E  Q.     E     Q.     Q.      E   E     E  E  E  E  Q.     E   
------------------------|------------------------|------------------------|
--------6-----5------3--|--L------5--------------|--------6-----5------3--|
--------5-----5------3--|--L------5--------------|--------5-----5------3--|
--------5-----5------3--|--L------5--------------|--------5-----5------3--|
------------------------|------------------------|------------------------|
--0--0------------------|----------------12\--0--|--0--0------------------|


  Q.     Q.     E  E     Q    E  E  Q.     E     Q.     Q     Q.       
----------------------|-----------------------|-----------------------|
--L------5------------|-------6-----5------3--|--L------5-------------|
--L------5------------|-------5-----5------3--|--L------5-------------|
--L------5------------|-------5-----5------3--|--L------5-------------|
----------------------|-----------------------|-----------------------|
-------------------0--|--0--------------------|--------------12\------|


  Q    E   E  Q.     E     E  S S S S S S S S S S S S S S  
------------------------|---------------------------------|
------------------------|-----------------6-6-5-5---------|
--3-----------3------5--|--L----------5-5---------5-5-----|
--3-----------3------5--|--L------5-5-----------------5-5-|
--1----3s--5---------3--|--L--3-3-------------------------|
------------------------|---------------------------------|


                                                      PM PM                  
                                      |---3--|                               
  Q    E  E  Q.     E     Q.     Q    E   E  E  E     E  E  E  E  Q.     E   
-----------------------|---------------------------|------------------------|
-------6-----5------3--|--L------5----6s--8--6--5--|--------6-----5------3--|
-------5-----5------3--|--L------5----7s--9--7--5--|--------5-----5------3--|
-------5-----5------3--|--L------5-----------------|--------5-----5------3--|
-----------------------|---------------------------|------------------------|
--0--------------------|---------------------------|--0--0------------------|


                  PM PM    PM PM                                         
  Q.     H        S  S     E  E  E  E  Q.     E     Q.     H        E    
------------------------|------------------------|----------------------|
--L------5--------------|--------6-----5------3--|--L------5------------|
--L------5--------------|--------5-----5------3--|--L------5------------|
--L------5--------------|--------5-----5------3--|--L------5------------|
------------------------|------------------------|------------------7\--|
------------------0--0--|--0--0------------------|----------------------|


                                                          Verse                
                                                                        PM PM  
  Q    E   E  E  E  E  E     E  S  S E  E  Q     Q        Q.     Q.     E  E   
--------------------------|----------------------------|----------------------|
--------------------------|----------------------------|--8------6------------|
--3-----------3-----3--5--|--L-------5--5--5-----------|--7------7------------|
--3-----------3-----3--5--|--L-------5--5--5-----------|--7------7------------|
--1----3s--5-----5-----3--|-----5s-7-------------------|----------------------|
--------------------------|---------------------12\----|----------------0--0--|


  E  E  E  E  E  E  E  E     Q.     E  H           H        E  E  E  E   
--------------------------|---------------------|-----------------------|
--8-----6-----5-----6-----|--5------3--3--------|--L--------L-----------|
--7-----7-----5-----7-----|--5------3--3--------|--L--------L-----------|
--7-----7-----5-----7-----|--5------3--3--------|--L--------L-----------|
--------------------------|---------------------|-----------------------|
--------------------------|---------------------|--------------3--2--0--|


  Verse                                                                
  Q.     E  H           E  E  E  E  E  E  E  E     Q.     Q    Q.      
---------------------|--------------------------|---------------------|
--8------6--L--------|--8-----6-----5-----6-----|--5------3----3------|
--7------7--L--------|--7-----7-----5-----7-----|--5------3----3------|
--7------7--L--------|--7-----7-----5-----7-----|--5------3----3------|
---------------------|--------------------------|--3------1----1------|
---------------------|--------------------------|---------------------|


  W                   W                   W                  
-------------------|-------------------|-------------------||
--L----------------|--L----------------|--L----------------||
--L----------------|--L----------------|--L----------------||
--L----------------|--L----------------|--L----------------||
--L----------------|--L----------------|--L----------------||
-------------------|-------------------|-------------------||



=============================================================================
=============================================================================

                                                                  
Guitar 2 - bridge and solo





     PM PM PM PM PM PM PM    PM PM PM PM    PM      PM PM  
                                            |--3--|        
  E  E  E  E  E  E  E  E     E  E  E  E  E  S  S  S E  E   
--------------------------|-------------------------------|
-----6--------5-----------|-----6--------5--5h-6p-5-------|
--------7--------5--------|--5-----7----------------5-----|
-----------7--------5-----|-----------7----------------5--|
-----------------------5--|-------------------------------|
--------------------------|-------------------------------|


     PM PM PM PM PM PM PM    PM PM PM PM                  PM PM PM PM PM PM PM  
  E  E  E  E  E  E  E  E     E  E  E  E  E.  E.  E     E  E  E  E  E  E  E  E   
-----5--------------------|-------------------------|--------------------------|
--------6-----8--5--------|-----6--------5----------|-----6--------5-----------|
-----------7--------5-----|--------7---------5------|--------7--------5--------|
-----------------------5--|--7--------7----------5--|-----------7--------5-----|
--------------------------|-------------------------|-----------------------5--|
--------------------------|-------------------------|--------------------------|


  PM PM PM PM    PM      PM PM       PM PM PM PM PM PM PM  
                 |--3--|                                   
  E  E  E  E  E  S  S  S E  E     E  E  E  E  E  E  E  E   
-------------------------------|-----5--------------------|
-----6--------5--5h-6p-5-------|--------6-----8--5--------|
--5-----7----------------5-----|-----------7--------5-----|
-----------7----------------5--|-----------------------5--|
-------------------------------|--------------------------|
-------------------------------|--------------------------|


  PM PM PM PM                  PM PM PM PM PM PM PM  
  E  E  E  E  E.  E.  E     E  E  E  E  E  E  E  E   
-------------------------|--------------------------|
-----6--------5----------|-----6--------5-----------|
--------7---------5------|--------7--------5--------|
--7--------7----------5--|-----------7--------5-----|
-------------------------|-----------------------5--|
-------------------------|--------------------------|


  PM PM PM PM    PM      PM PM       PM PM PM PM PM PM PM  
                 |--3--|                                   
  E  E  E  E  E  S  S  S E  E     E  E  E  E  E  E  E  E   
-------------------------------|-----5--------------------|
-----6--------5--5h-6p-5-------|--------6-----8--5--------|
--5-----7----------------5-----|-----------7--------5-----|
-----------7----------------5--|-----------------------5--|
-------------------------------|--------------------------|
-------------------------------|--------------------------|


  PM PM PM PM                  PM PM PM PM PM PM PM  
  E  E  E  E  E.  E.  E     E  E  E  E  E  E  E  E   
-------------------------|--------------------------|
-----6--------5----------|-----6--------5-----------|
--------7---------5------|--------7--------5--------|
--7--------7----------5--|-----------7--------5-----|
-------------------------|-----------------------5--|
-------------------------|--------------------------|


  PM PM PM PM    PM      PM PM       PM PM PM PM PM PM PM  
                 |--3--|                                   
  E  E  E  E  E  S  S  S E  E     E  E  E  E  E  E  E  E   
-------------------------------|-----5--------------------|
-----6--------5--5h-6p-5-------|--------6-----8--5--------|
--5-----7----------------5-----|-----------7--------5-----|
-----------7----------------5--|-----------------------5--|
-------------------------------|--------------------------|
-------------------------------|--------------------------|


  PM PM PM PM                                                                
  E  E  E  E  E.  E.  E                                                      
-------------------------|-----|-------------------|----|----|----|----|----|
-----6--------5----------|-----|-------------------|----|----|----|----|----|
--------7---------5------|-----|-------------------|----|----|----|----|----|
--7--------7----------5--|-----|-------------------|----|----|----|----|----|
-------------------------|-----|-------------------|----|----|----|----|----|
-------------------------|-----|-------------------|----|----|----|----|----|


   H          Q.        E   
---------------------------|
--22b--------20brb---------|
---------------------------|
---------------------------|
---------------------------|
---------------------------|


   E    S  S   S  S  S  S  S  S  S  S  S   S  S   S  
----------------------------------------------------|
-------10-13p-10----15-10-13-10----10-----10-13p-10-|
--12b------------12-------------12----12b-----------|
----------------------------------------------------|
----------------------------------------------------|
----------------------------------------------------|


   S   S  S   S  S  S  E   Q.       E   
---------------------------------------|
------10-13p-10-15-10-10--13b-------L--|
--12b----------------------------------|
---------------------------------------|
---------------------------------------|
---------------------------------------|


   S  S  S  S  S  S  S  S S  S  S  S  S S  S  S  
--------12-12-10--------------------------------|
--10-13----------13-10--------------------------|
-----------------------12-9----------10-9-------|
----------------------------12----12------12-10-|
-------------------------------10---------------|
------------------------------------------------|


        PM  PM PMPM  PMPM W         
   S  S S   S  S S   S S  H         
-----------------------------------|
-----------------------------------|
-----------------------------------|
-----------------------------------|
--12-10-8--12-10-8--10-8--7--------|
-----------------------------------|


   PM PM PM PM PM                              
   S  S  S  S  S  S  S  S  S  S  S  S  S  E.   
-----------------------------10-13-10-13-10---|
--------------10-13-12-10-13------------------|
--------10-12---------------------------------|
-----12---------------------------------------|
--10------------------------------------------|
----------------------------------------------|


                        |----5----|  
   Q.         E   Q     E   S  S  S  
--13br~------13--13\----------------|
---------------------------------11-|
------------------------------12----|
---------------------------13-------|
------------------------------------|
------------------------------------|


   |------5-----|  |------5-----|  |------5-----|  |------5-----|  
   S   S  S  S  S  S   S  S  S  S  S   S  S  S  S  S   S  S  S  S  
------------------------------------------------------------------|
--15p-11-------11-15p-11-------13-17p-13-------13-17p-13-------15-|
------------12--------------14--------------14--------------17----|
---------13--------------15--------------15--------------17-------|
------------------------------------------------------------------|
------------------------------------------------------------------|


   |------5-----|  |------5-----|  |------5-----|         
   S   S  S  S  S  S   S  S  S  S  S   S  S  S  S  Q      
---------------------------------------------------------|
--18p-15-------15-18p-15-------17-20p-17-------17-20b----|
------------17--------------19--------------19-----------|
---------17--------------20--------------20--------------|
---------------------------------------------------------|
---------------------------------------------------------|


   E     Q      E    E    E.    S  S  S  
----------------------------------------|
---Lpb--20b----20b--20b--20b---20-18----|
---------------19b-------19b---------19-|
----------------------------------------|
----------------------------------------|
----------------------------------------|


   S  S  Q      S   E   E.     E     S  S  
------------------------------------------|
--18-----------------------------------18-|
-----19-19b----17h-19---Lbr----Lbr--19----|
------------------------------------------|
------------------------------------------|
------------------------------------------|


   S  S  S  S  S  S  S  S  S  S  S  S  S  S  S  S  
-----17----------------------------------17-20-17-|
--20----20-18-20-18-17----------17-18-20----------|
-----------------------19-17-19-------------------|
--------------------------------------------------|
--------------------------------------------------|
--------------------------------------------------|


   S  S  S  S  S  S  S  S  S  S  S  S  E   E    
-----------------------------------------------|
--20-18-20-18-17-20-18-17----------------------|
--------------------------19-17-19-17-19--19b--|
-----------------------------------------------|
-----------------------------------------------|
-----------------------------------------------|


   E      S  S  S  Q      S  S  S  S  E.    
-------------------------------------------|
---------------17-18b----18-17-18-20-20b---|
---Lpbr--17-19-----------------------------|
-------------------------------------------|
-------------------------------------------|
-------------------------------------------|


   E.      S  E   E    E   E   E   E       Q      Q      E    E    E    E    
----------------------17--18--20--20b--|--20b----20b----20b--20b--20b--22b--|
---Lpbr---20-18--20b-------------------|------------------------------------|
---------------------------------------|------------------------------------|
---------------------------------------|------------------------------------|
---------------------------------------|------------------------------------|
---------------------------------------|------------------------------------|


   Q       Q      E    E    E    E       Q.        Q.       Q      
---Lpb----22b----22b--22b--22b--22b--|---Lpb------22b------22b----|
-------------------------------------|----------------------------|
-------------------------------------|----------------------------|
-------------------------------------|----------------------------|
-------------------------------------|----------------------------|
-------------------------------------|----------------------------|


   E     Q.       Q      Q         H         H                                 
---Lpb--22b------22b----22b----|--22\-----------------|-----------|-----------|
-------------------------------|----------------------|-----------|-----------|
-------------------------------|----------------------|-----------|-----------|
-------------------------------|----------------------|-----------|-----------|
-------------------------------|----------------------|-----------|-----------|
-------------------------------|----------------------|-----------|-----------|







=============================================================================
=============================================================================

 
Guitar 3 - harmony part during the bridge




     PM PM PM PM PM PM PM    PM PM PM PM    PM      PM PM  
                                            |--3--|        
  E  E  E  E  E  E  E  E     E  E  E  E  E  S  S  S E  E   
-----5--------------------|-------------------------------|
--------6-----8--5--------|-----6--------5--5h-6p-5-------|
-----------7--------5-----|--------7----------------5-----|
-----------------------5--|--7--------7----------------5--|
--------------------------|-------------------------------|
--------------------------|-------------------------------|


     PM PM PM PM PM PM PM    PM PM PM PM                  PM PM PM PM PM PM PM  
  E  E  E  E  E  E  E  E     E  E  E  E  E.  E.  E     E  E  E  E  E  E  E  E   
-----5--------------------|-------------------------|-----5--------------------|
--------6-----8--5--------|-----6--------5----------|--------6-----8--5--------|
-----------7--------5-----|--------7---------5------|-----------7--------5-----|
-----------------------5--|--7--------7----------5--|-----------------------5--|
--------------------------|-------------------------|--------------------------|
--------------------------|-------------------------|--------------------------|


  PM PM PM PM    PM      PM PM       PM PM PM    PM PM PM  
                 |--3--|                                   
  E  E  E  E  E  S  S  S E  E     E  E  E  E  E  E  E  E   
-------------------------------|-----5--------------------|
-----6--------5--5h-6p-5-------|--------6-----8--5--------|
--7-----7----------------5-----|-----------7--------5-----|
-----------7----------------5--|--0--------------------5--|
-------------------------------|--------------------------|
-------------------------------|--------------------------|


  PM PM PM PM                  PM PM PM PM PM PM PM  
  E  E  E  E  E.  E.  E     E  E  E  E  E  E  E  E   
-------------------------|-----5--------------------|
-----6--------5----------|--------6-----8--5--------|
--7-----7---------5------|-----------7--------5-----|
-----------7----------5--|-----------------------5--|
-------------------------|--------------------------|
-------------------------|--0-----------------------|


  PM PM PM PM PM PM      PM PM       PM PM PM PM PM PM PM  
                 |--3--|                                   
  E  E  E  E  E  S  S  S E  E     E  E  E  E  E  E  E  E   
-------------------------------|-----5--------------------|
-----6--------5--5h-6p-5-------|--------6-----8--5--------|
--7-----7----------------5-----|-----------7--------5-----|
-----------7----------------5--|-----------------------5--|
-------------------------------|--------------------------|
-------------------------------|--------------------------|


  PM PM PM PM                  PM PM PM PM PM PM PM  
  E  E  E  E  E.  E.  E     E  E  E  E  E  E  E  E   
-------------------------|-----5--------------------|
-----6--------5----------|--------6-----8--5--------|
--5-----7---------5------|-----------7--------5-----|
-----------7----------5--|-----------------------5--|
-------------------------|--------------------------|
-------------------------|--------------------------|


  PM PM PM PM PM PM      PM PM       PM PM PM PM PM PM PM  
                 |--3--|                                   
  E  E  E  E  E  S  S  S E  E     E  E  E  E  E  E  E  E   
-------------------------------|-----5--------3-----------|
-----6--------5--5h-6p-5-------|--------6--------5--------|
--7-----7----------------5-----|-----------7--------5-----|
-----------7----------------5--|-----------------------5--|
-------------------------------|--------------------------|
-------------------------------|--------------------------|


  PM PM PM PM                                                             
  E  E  E  E  E.  E.  E                                                   
-------------------------|-------|-------|-------|-------|-------|-------|
-----6--------5----------|-------|-------|-------|-------|-------|-------|
--7-----7---------5------|-------|-------|-------|-------|-------|-------|
-----------7----------5--|-------|-------|-------|-------|-------|-------|
-------------------------|-------|-------|-------|-------|-------|-------|
-------------------------|-------|-------|-------|-------|-------|-------|





Duration Legend
---------------
W - whole
H - half
Q - quarter
E - 8th
S - 16th
T - 32nd
X - 64th
. - note dotted
|-n-|  - n-tuplets


Tablature Legend
----------------
L - tied note
x - dead note
g - grace note
(n) - ghost note
> - accentuded note
NH - natural harmonic
AH - artificial harmonic
TH - tapped harmonic
SH - semi harmonic
PH - pitch harmonic
h - hammer on
p - pull off
b - bend
br - bendRelease
pb - preBend
pbr - preBendRelease
brb - bendReleaseBend
\n/ - tremolo bar dip
\n - tremolo bar dive
-/n - tremolo bar Release up
/n\ - tremolo bar inverted dip
/n - tremolo bar return
-\n - tremolo bar Release down
S - shift slide
s - legato slide
/ -  slide into from below or out of upwards
\ -  slide into from above or out of downwards
~ - vibrato
W - wide vibrato
tr - trill
TP - tremolo picking
T - tapping
S - slap
P - pop
< - fade in
^ - brush up
v - brush down
Tap to rate this tab
 
# A B C D E F G H I J K L M N O P Q R S T U V W X Y Z