Song name
# A B C D E F G H I J K L M N O P Q R S T U V W X Y Z

Wishbone Ash - Throw Down The Sword tab

throw down the sword(solo)
Wishbone Ash

(it's not perfect, yet, but it still helps)

E  :-----------------15-15----------------|------------------------|
B  :-------13-15-b17-------b17-r15--13-p12|------------------------|
G  :12-b14--------------------------------|-14-12----------------12|
D  :--------------------------------------|-------14-12----12-14---|
A  :--------------------------------------|-------------15---------|
E  :--------------------------------------|------------------------|

E  :-------------------------|--------------15--15----------|
B  :---------------------13--|-15-13-15-b17--------17-r15-13|
G  :-------------12-b14------|------------------------------|
D  :-14-12-14-12-------------|------------------------------|
A  :-------------------------|------------------------------|
E  :-------------------------|------------------------------|

E  :----12------------------|12----------------------|
B  :-15----15--13-h15-15----|---15-13-13-------------|
G  :------------------------|------------14--------12|
D  :------------------------|----------------12-14---|
A  :------------------------|------------------------|
E  :------------------------|------------------------|

E  :------------------15-15---|-------15-b17--15-12-15-b17-20|
B  :-------13--15-b17-------17|r15-15------------------------|
G  :----14--------------------|------------------------------|
D  :-14-----------------------|------------------------------|
A  :--------------------------|------------------------------|
E  :--------------------------|------------------------------|

E  :-17-r15-15-15-12-15-12-15-b17|b17---15-12--20-b22-b22-b22--22|
B  :-----------------------------|-------------------------------|
G  :-----------------------------|-------------------------------|
D  :-----------------------------|-------------------------------|
A  :-----------------------------|-------------------------------|
E  :-----------------------------|-------------------------------|

E  :r20------------------------|--------------------------|
B  :----20-20-b22-20--17-20-17-|--------------------------|
G  :---------------------------|19-17---19-17-19-17-19-b21|
D  :---------------------------|--------------------------|
A  :---------------------------|--------------------------|
E  :---------------------------|--------------------------|

E  :------------------------------------------|------------------------|
B  :20---------------------20-----20-----20---|------17-15-13-12-------|
G  :---21-r19-17-19-19-b21----b21----b21----21|r19---------------14-12-|
D  :------------------------------------------|------------------------|
A  :------------------------------------------|------------------------|
E  :------------------------------------------|------------------------|

E  :------------------------|------------------15-------------|
B  :------17-15-13-12-------|-------13--15-b17----17-r15------|
G  :---14-------------14-12-|12-b14---------------------------|
D  :14----------------------|---------------------------------|
A  :------------------------|---------------------------------|
E  :------------------------|---------------------------------|




E  :---------------------------|------------------------|
B  :13-15-b17-15-13-12---------|------------------------|
G  :-------------------14-12---|-------12----12----12-14|
D  :-------------------------14|-12-14----14----14------|
A  :---------------------------|------------------------|
E  :---------------------------|------------------------|

E  :-------------15-b17b-b-b-b-b-|b-b15-12----------------12|
B  :-13----13-15-----------------|---------15-13----13-15---|
G  :----14-----------------------|---------------14---------|
D  :-----------------------------|--------------------------|
A  :-----------------------------|--------------------------|
E  :-----------------------------|--------------------------|

E  :-15-~-15----20-b22-b--b-b-b-|b--22-r20-17-----------------|
B  :---------17-----------------|-------------20-20-b22-20-17-|
G  :----------------------------|-----------------------------|
D  :----------------------------|-----------------------------|
A  :----------------------------|-----------------------------|
E  :----------------------------|-----------------------------|

E  :------------------------|
B  :20-b22-20-b22-----------|
G  :------------------------|
D  :------------------------|
A  :------------------------|
E  :------------------------|
Tap to rate this tab
# A B C D E F G H I J K L M N O P Q R S T U V W X Y Z