Song name
# A B C D E F G H I J K L M N O P Q R S T U V W X Y Z

Acid Bath - Dope Fiend tab

Dropped C tuning (C G C F A D)

Intro Solo.

Played over the intro riff.

D|----------------------------------------------------------------------|
A|----------------------------------------------------------------------|
F|----12b13r12--12b13r12--12b13-r12--12----12-------------12----12------|
C|--------------------------------------10-----10-b13r12-----10----10---|
G|----------------------------------------------------------------------|
C|----------------------------------------------------------------------|

D|----------------------------------------------------------------------|
A|----------------------------------------------------------------------|
F|----------------------------------------------------------------------|
C|-12b13r12-------10-------10-------10-------10------10h12-10h12p10--10-|
G|-----------10h12----10h12----10h12----10h12---10h12--------------12---|
C|----------------------------------------------------------------------|

 Rest is all v.fast hammeron and pulloff trills, but it sounds ok to do
 more stuff in a similar vein to the first part (and it's easier).

Intro:

e|-----------------------------------------------------------|
B|-----------------------------------------------------------|
G|-----------------------------------------------------------|
D|--0---0--0---6---0---5-------------5--6--3---6---5--3----0-|
A|--0---0--0---6---0---X-------------5--6--3---6---5--3----0-|
D|--0---0--0---6---0---5----5/6\5----5--6--3---6---5--3----0-|

Verse:

e|----------------------------------------------------|
B|----------------------------------------------------|
G|----------------------------------------------------|
D|-0---6------0--5-------0--6------0--6-----0---6---5-|
A|-0---6------0--5-------0--6------0--6-----0---6---5-|
D|-0---6------0--5-------0--6------0--6-----0---6---5-|

Chorus:  
              (art harm.)
e|----------------------|      |-------------------------------|
B|----------------------|      |-------------------------------|
G|----------------------| (x4) |-------------------------------|
D|------------------0---|      |---4--5--4-----4---------------|     
A|------1-----4---------|      |------------5-----5---4--------|
D|--0-------------------|      |-------------------------------|

Interlude:

e|------------------------------------------------------------------------------|
B|------------------------------------------------------------------------------|
G|------------------------------------------------------------------------------|
D|------------------------------------------------------------------------------|
A|--------8-8-8-8---------7-7-7-7---------3-3-3-3---------0-0-0---------8-8-8-8-|
D|-8-8-8-----------7-7-7-----------3-3-3-----------0-0-0---------8-8-8----------|

Interlude (cont.)

e|--------------------|--------------------------------------------------|
B|--------------------|--------------------------------------------------|
G|--------------------|--------------------------------------------------|
D|-----------------0--|--8---7---3-----0---1---3-----6---5---0-----------|
A|--------7-7-7-7--0--|--8---7---3-----0---1---3-----6---5---0-----------|
D|-7-7-7-----------0--|--8---7---3-----0---1---3-----6---5---0-----------|

Interlude (cont.)

e|------------------------------------------------------------------------------|
B|------------------------------------------------------------------------------|
G|------------------------------------------------------------------------------|
D|------------------------------------------------------------------------------|
A|--------8-8-8-8---------7-7-7-7---------3-3-3-3---------0-0-0---------8-8-8-8-|
D|-8-8-8-----------7-7-7-----------3-3-3-----------0-0-0---------8-8-8----------|

Interlude (cont.)  
                                 (art harm.)
e|-----------------------------------------|------------------------|
B|-----------------------------------------|------------------------|
G|-----------------------------------------|-------AD LIB THE REST--|
D|-----------------0-----------------------|--------OF INTERLUDE----|
A|--------7-7-7-7--0-----------7------(7)--|------------------------|
D|-7-7-7-----------0----0---6-----6--------|------------------------|
Tap to rate this tab
# A B C D E F G H I J K L M N O P Q R S T U V W X Y Z