Song name
# A B C D E F G H I J K L M N O P Q R S T U V W X Y Z

Alkaline Trio - 97 tab

Song: 97
Band: Alkaline Trio
Album: Self Titled
Tabber: Jaik Irwin
Email: Jackxoskellington@yahoo.com

I almost positive this 100% correct

Intro x3

|----------------------------------------|
|----------------------------------------|
|-------------9--2----99999999999--2-----|
|----7-6-6-4--x--2/7--xxxxxx99999--2/7---|
|---0-0-0-0-0-7--0----77777766677--0-----|
|----------------------------------------|

Verse x6

|-----------------------------------|
|-----------------------------------|
|-9999--9/11-9-7-6-7-0-666666444444-|
|-9999--9/11-9-7-6-7-0-666666444444-|
|-7777-----------------444444222222-|
|-----------------------------------|

Chorus P.M. (you can figure out which notes)

|-----------------------------------|
|-----------------------------------|
|-----------------------------------|
|7777--9999--4444--666666--777777---|
|7777--9999--4444--666666--777777---|
|5555--7777--2222--444444--555555---|


Then play the verse x2


Interlude



|--------------------------|
|--------------------------|
|-----------4-2--4444-6666-|
|--2-4-2-2-2---2-4444-6666-|
|-0-0---0-0------2222-4444-|
|--------------------------|

|--------------------------|
|--------------------------|
|-----------4-2--44669988\-|
|--2-4-2-2-2---2-44669988\-|
|-0-0---0-0------22447766\-|
|--------------------------|

|---------------------------|
|---------------------------|
|-----------4-2--4444222420-|
|--2-4-2-2-2---2-4444444442-|
|-0-0---0-0------2222000000-|
|---------------------------|

|---------------------------|
|---------------------------|
|-----------4-2-------------|
|--2-4-2-2-2---2-4444666677-|
|-0-0---0-0------4444666677-|
|----------------2222444455-|


Verse x4

Bridge ( I dont Deserve this part )


he plays these radomly through that part
|-----------|
|-----------|
|--9----9-9-|
|--9----9-9-|
|--7----6/7-|
|-----------|


Outro x3

|--------------------|
|--------------------|
|-9999999966664444---|
|-9999999966664444---|
|-7777667744442222---|
|--------------------|


Verse x1


End with the Bridge/I dont deserve this part 
Tap to rate this tab
# A B C D E F G H I J K L M N O P Q R S T U V W X Y Z