Song name
# A B C D E F G H I J K L M N O P Q R S T U V W X Y Z

All Time Low - Weightless tab

-------------------------------------------------------------------------------
			     Weightless - All Time Low
-------------------------------------------------------------------------------
Tabbed by: Michael Laakso (Digitbig) and Brian Broderick
Email: bigmikeylaakso@gmail.com

Tuning: Drop D

I couldn't find a tab that would be good for solo playing, so my teacher helped me make 
own. This is the best we could come up with. ATL has two guitarists, but we tried to tab 
so that bands with only one can play it.

VERSE 1

e|----------------|
B|----------------|
G|----------------|
D|5555555555555555|
A|----------------|
D|----------------|
  ****************
(That's 16 notes)

Play the next four measures twice

e|----------------|
B|--7-8-7---7-8-7-|
G|----------------|
D|55-5-5-555-5-5-5|
A|----------------|
D|----------------|
  ****************

e|----------------|
B|--7-8-7---7-8-7-|
G|----------------|
D|77-7-7-777-7-7-7|
A|----------------|
D|----------------|
  ****************

e|----------------|
B|--7-8-7---7-8-7-|
G|----------------|
D|00-0-0-000-0-0-0|
A|----------------|
D|----------------|
  ****************

e|----------------|
B|--7-8-7---7-8-7-|
G|----------------|
D|55-5-5-555-5-5-5|
A|----------------|
D|----------------|
  ****************

e|----------------|
B|----------------|
G|----------------|
D|00--------------|
A|00--------------|
D|00--------------|

e|----------------|
B|--7-8-7---7-8-7-|
G|----------------|
D|77-7-7-777-7-7-7|
A|----------------|
D|----------------|
  ****************

e|----------------|
B|----------------|
G|----------------|
D|00--------------|
A|00--------------|
D|00--------------|

e|----------------|
B|--7-8-7---7-8-7-|
G|----------------|
D|55-5-5-555-5-5-5|
A|----------------|
D|----------------|
  ****************

e|----------------|
B|----------------|
G|----------------|
D|0000------------|
A|0000------------|
D|0000------------|

e|----------------|
B|--7-8-7---7-8-7-|
G|----------------|
D|77-7-7-777-7-7-7|
A|----------------|
D|----------------|
  ****************

These next two measures are a crescendo

e|----------------|
B|----------------|
G|----------------|
D|0000000000000000|
A|0000000000000000|
D|0000000000000000|

e|----------------|
B|----------------|
G|----------------|
D|000000000-------|
A|000000000-------|
D|000000000-------|

CHORUS

e|--------------------|
B|--------------------|
G|--------------------|
D|5--55--5550--00--000|
A|5--55--5550--00--000|
D|5--55--5550--00--000|

e|--------------------|
B|--------------------|
G|--------------------|
D|7--77--77777-6-7-4--|
A|7--77--77777-4-5-4--|
D|7--77--77777-----4--|

e|--------------------|
B|--------------------|
G|--------------------|
D|5--55--5550--00--000|
A|5--55--5550--00--000|
D|5--55--5550--00--000|

e|--------------------|
B|--------------------|
G|--------------------|
D|7--77--777--7777777-|
A|7--77--777--7777777-|
D|7--77--777--7777777-|

e|--------------------|
B|--------------------|
G|4--44--4442--22--222|
D|4--44--4442--22--222|
A|2--22--2220--00--000|
D|--------------------|

e|--------------------|
B|--------------------|
G|--------------------|
D|5--55--5550--00--000|
A|5--55--5550--00--000|
D|5--55--5550--00--000|

e|--------------------|
B|--------------------|
G|--------------------|
D|5--55--55557----\---|
A|5--55--55557----\---|
D|5--55--55557----\---|

e|-----------------------------------|
B|-----------------------------------|
G|-----------------------------------|
D|0---00-00-----0-0--00-00-0-0-------|
A|0---00-00-----0-0--00-00-0-0-------|
D|0---00-00-----0-0--00-00-0-0-------|

VERSE 2 (x2?) (This part drove us both up the wall. Bear with me.)

e|---------------------------------------|
B|---------------------------------------|
G|---------------------------------------|
D|---------------------------------------|
A|5-5p4-5-x5-5p4-5h7-5-5p4-5h7-5-5p4-5h7-|
D|---------------------------------------|

e|---------------------------------------|
B|---------------------------------------|
G|---------------------------------------|
D|---------------------------------------|
A|5-5p4-5-x5-5p4-5h7-5-5p4-5h7-5---------|
D|-------------------------------55555555|

PRE-CHORUS

e|----------------|
B|----------------|
G|----------------|
D|5555555555555555|
A|5555555555555555|
D|5555555555555555|

e|----------------|
B|----------------|
G|----------------|
D|7777777777777777|
A|7777777777777777|
D|7777777777777777|

e|----------------|
B|----------------|
G|----------------|
D|0000000000000000|
A|0000000000000000|
D|0000000000000000|

(Play the chorus again)

PRE-SOLO (x2)

e|14----14---14-14---14----|
B|---15----15-----15----15-|
G|-------------------------|
D|-------------------------|
A|-------------------------|
D|-------------------------|

SOLO

e|---------------------|
B|---------------------|
G|---7---7---7---7---7~|
D|4h5-4h5-4h5-4h5-4h5--|
A|---------------------|
D|---------------------|

e|---------------------|
B|---3---3---3---3---3~|
G|2h4-2h4-2h4-2h4-2h4--|
D|---------------------|
A|---------------------|
D|---------------------|

e|--------------------------|
B|3-5-5/777\555\333/555/7777|
G|--------------------------|
D|--------------------------|
A|--------------------------|
D|--------------------------|

e|---------------------|
B|---------------------|
G|---7---7---7---7---7~|
D|4h5-4h5-4h5-4h5-4h5--|
A|---------------------|
D|---------------------|

e|---------------------|
B|---3---3---3---3---3~|
G|2h4-2h4-2h4-2h4-2h4--|
D|---------------------|
A|---------------------|
D|---------------------|

e|----------------|
B|----------------|
G|----------------|
D|0000000000000000|
A|0000000000000000|
D|0000000000000000|

e|----------------|
B|----------------|
G|----------------|
D|7777777777777777|
A|7777777777777777|
D|7777777777777777|

e|----------------|
B|----------------|
G|----------------|
D|0---------------|
A|0---------------|
D|0---------------|

e|----------------|
B|----------------|
G|----------------|
D|5---------------|
A|5---------------|
D|5---------------|

Play the chorus one more time and you're done!


Comments and corrections are welcome. This is my first tab and I want to know how well I did.


************************************

| /   slide up
| \   slide down
| h   hammer-on
| p   pull-off
| ~   vibrato
| x   Mute note
| *   Palm mute (below the measure)


************************************
Tap to rate this tab
# A B C D E F G H I J K L M N O P Q R S T U V W X Y Z