Song name
# A B C D E F G H I J K L M N O P Q R S T U V W X Y Z

American Nightmare - Farewell tab

-------------------------------------------------------------------------------
			FAREWELL - Amercan Nightmare
-------------------------------------------------------------------------------

By: Mike Crucial www.myspace.com/mikecrucial

   Intro			Verse
E|----------------------------|----------------------------------------------|
B|---------------------8--12--|----------------------------------------------|
G|--2-----5------2--7---------|--2-2-2-2-4-------------5-5-5-5-5-7--9-9-9-9--|
D|--2--5--5--2---------5--9---|--2-2-2-2-4--5-5-5-5-5--5-5-5-5-5-7-----------|
A|--0--5--3--2---0--5---------|--0-0-0-0-2--5-5-5-5-5--3-3-3-3-3-5--7-7-7-7--|
E|-----3-----0----------------|-------------3-3-3-3-3------------------------|

			        Chorus	
E|-------------------|--------|----------------------------------------------|
B|-------------------|--(x2)--|----------------------------------------------|
G|--9-9--9-7--5-4-2--|--------|--7-7-7-7-7--5-5-5-5-5-----------7-7--5-4-2---|
D|-------------------|--------|--7-7-7-7-7--5-5-5-5-5--2-2-2-2--5-5----------|
A|--7-7--7-5--3-2-0--|--------|--5-5-5-5-5--3-3-3-3-3--2-2-2-2-------3-2-0---|
E|-------------------|--------|------------------------0-0-0-0---------------|

E|-------------------------------------------------|        |----------------|
B|-------------------------------------------------|        |----------------|
G|--5-4-----7-7-7-7-7--5-5-5-5-5--9-9-9-9--7-7--2--| Repeat |--7--5----------|
D|------5---7-7-7-7-7--5-5-5-5-5-----------5-5--2--| Verse  |--7--5----------|
A|--3-2-----5-5-5-5-5--3-3-3-3-3--7-7-7-7-------0--|        |--5--3----------|
E|------3------------------------------------------|        |----------------|

   Repeat Chorus

   Outro
E|------------------------------------------------------|--------------------||
B|------------------------------------------------(x )--|--------------------||
G|--2-2-2-2-2-------------5-5-5-5-5--9-9-9-9-9-9--------|--------------------||
D|--2-2-2-2-2--5-5-5-5-5--5-5-5-5-5---------------------|--5-5--7------------||
A|--0-0-0-0-0--5-5-5-5-5--3-3-3-3-3--7-7-7-7-7-7--------|--5-5--7------------||
E|-------------3-3-3-3-3--------------------------------|--3-3--5------------||

===============================================================================
Tap to rate this tab
# A B C D E F G H I J K L M N O P Q R S T U V W X Y Z