Song name
# A B C D E F G H I J K L M N O P Q R S T U V W X Y Z

Atreyu - My Fork In The Road Your Knife In My Back tab

Song: My Fork In The Road (Your Knife In My Back)
Artist: Atreyu
Album: A Death-grip On Yesterday 
Tuning: DROP C

D|--------------------------------------------------------------------------|
A|--------------------------------------------------------------------------|
F|---------9b---(9)----------------12b--(12)---------------9----10p7-----12|
C|--10---------------10-----10--7--------------10-(10)\-7----7--------/9---|
G|8----8-----------------8--------------------------------------------------|
C|--------------------------------------------------------------------------|

D|--------------------------------------------------------------------------|
A|-------------12b-(12)----------------------------------------------------|
F|---10---------------------------------------------------------------------|
C|9------9--9----------------10-----9b-(9)---------10-----9h10--9-7-------|
G|------------------------8------8-----------10--8------8-------------------|
C|--------------------------------------------------------------------------|

D|--------------------------------------------------------------------------|
A|-------------------------------------------------------------------------|
F|--------------------------------------------------------------------------|
C|(7)-7--9--710P7--/9--12--9--10--9--99h10p9---------(7)--7--9--710p7-/9|
G|-----------------------------------------------10--10---------------------|
C|--------------------------------------------------------------------------|

D|--------------------------------------------------------------------------|
A|-------------------------------------------------------------------------|
F|-------------------------------------------9b-(9)----------------12b-(12)|
C|12--9109--9-9h10p9--------------10-----------10------10--7----------|
G|-----------------------10\8(8)--8------8---------------8-----------------|
C|--------------------------------------------------------------------------|


D|--------------------------------------------------------------------------|
A|------------------------------------------12b(12)-----------------------|
F|----------9-----10p7------12-----10--------------------------------9b-(9)|
C|10-10\7---7-------/9-----9------9--9--------------------10---------|
G|-----------------------------------------------------8(8)--8-----8-------|
C|--------------------------------------------------------------------------|


D|--------------------------------------------------------------------------|
A|-------------------------------------------------------------------------|
F|-------------------------------------------------------------------------|
C|10--10----9h10--9--7--7--9-710p7--/9--12--9--10--9-9-9h10p9-------|
G|----8------8---------------------------------------------------------10\8-|
C|--------------------------------------------------------------------------|
Tap to rate this tab
 
# A B C D E F G H I J K L M N O P Q R S T U V W X Y Z