Song name
# A B C D E F G H I J K L M N O P Q R S T U V W X Y Z

Berri Txarrak - Bisai Berriak tab

              BISAI BERRIAK

By : Andres ( of Dex-karga )
Afinazioa : D A D G B E

INTRO

|--------------------------------------------------------------------|}
|--------------------------------------------------------------------|}
|------1212-1010---------55-77---------------------------------------|}
|-5-5--x-x--x-x---x-1-1--xx-xx---x-3-3-3333333333--------------------|}
|-5-5-1010-8-8---x-1-1--33-55---x-3-3-3333333333--------------------|}
|-5-5-------------x-1-1----------x-3-3-3333333333--------------------|}

VERSE

|--------------------------------------------------------------------|}
|--------------------------------------------------------------------|}
|--------------------------------------------------------------------|}
|--------------------------------------------------------------------|}
|--------------------------------------------------------------------|}
|55555555-011111111-03333333333333333--------------------------------|}
                                     
             P.M.

|--------------------------------------------------------------------|}
|--------------------------------------------------------------------|}
|--------------------------------------------------------------------|}
|--------------------------------------------------------------------|}
|--------------------------------------12--88-10---------------------|}
|55555555-011111111-03333333333333333--12--88-10---------------------|}
                                         
            P.M.                         

CHORUS

|--------------------------------------------------------------------|}
|--------------------------------------------------------------------|}
|7777777788888888----------------------------------------------------|}
|XXXXXXXXXXXXXXXX-8888888877777777-----------------------------------|}
|5555555566666666-8888888877777777-----------------------------------|}
|-----------------8888888877777777-----------------------------------|}
Tap to rate this tab
 
# A B C D E F G H I J K L M N O P Q R S T U V W X Y Z