Guitaretab - guitar tabs
Song name
# A B C D E F G H I J K L M N O P Q R S T U V W X Y Z

Billy Talent - White Sparrows tab

-------------------------------------------------------------------------------
			     White Sparrows  Billy Talent
-------------------------------------------------------------------------------
Tabbed by:johnnyoc3 (used PT-E's tab as a reference)

Still not to sure about the chords in the verse. for example some 
possibilities I came up with for just the last chord are: (D to E)
X32000, X32030, X32070, X02000, X02070


Tuning:Drop D then 1/2 Step down


 Intro                                                                  2x
|---------------------------------------------------------------------------|
|-------3p0------------7p0------------5p0---------------1p0-----------------|
|-----0-------0------0-------0------0-------0-------0-------2p0-------------|
|---2--------------5--------------4---------------2---2---------------------|
|-3---------3----7---------7----5---------5-----0---------------------------|
|---------------------------------------------------------------------------|

|---------------------------------------------------------------------------|
|---------------------------------------------------------------------------|
|--------------------2h4-5p42p0--------------------------------------------|
|-----2-5p2-4p2---4h5-------------------------------------------------------|
|---2------------(0)--------------------------------------------------------|
|-2--------------(0)--------------------------------------------------------|


 Verse 									2x
|-0----0----0----0----0----0------------------------------------------------|
|-7----5----7----5----5----0------------------------------------------------|
|-0----0----0----0----0----0----------------------2h4-5p4-2p0---------------|
|-5----4----5----4----5----2-------2-5p2-4p2--4h5---------------------------|
|-7----5----7----5----3----3-----2-----------(0)----------------------------|
|------------------------------2-------------(0)----------------------------|


 Pre-Chorus 								2x
|---------------------------------------------------------------------------|
|-5-5-5-5-5-5-5-5-7-7-7-7-7-7-7-7-8-8-8-8-8-8-8-8-1010101010101010----------|
|-x-x-x-x-x-x-x-x-x-x-x-x-x-x-x-x-x-x-x-x-x-x-x-x-x-x-x-x-x-x-x-x-----------|
|-5-5-5-5-5-5-5-5-5-5-5-5-5-5-5-5-9-9-9-9-9-9-9-9-9-9-9-9-9-9-9-9-----------|
|-3-3-3-3-3-3-3-3-3-3-3-3-3-3-3-3-7-7-7-7-7-7-7-7-7-7-7-7-7-7-7-7-----------|
|---------------------------------------------------------------------------|


 Chorus 								2x
  1 2 3 4 1 2 3 4 1 2 3 4 1 2 3 4 1   2   3 + 4	1 2 3 4 1 2 3 4     
|---------------------------------------------------------------------------|
|-5-5-5-5-5-5-5-5-7-7-7-7-7-7-7-7-8---8---8-108-7-7-7-7-7-7-7-7-------------|
|-5-5-5-5-5-5-5-5-5-5-5-5-5-5-5-5-x---x---x-x-x-7-7-7-7-7-7-7-7-------------|
|-5-5-5-5-5-5-5-5-5-5-5-5-5-5-5-5-9---9---9-9-9-7-7-7-7-7-7-7-7-------------|
|-3-3-3-3-3-3-3-3-3-3-3-3-3-3-3-3-7---7---7-7-7-5-5-5-5-5-5-5-5-------------|
|---------------------------------------------------------------------------|



|---------------------------------------------------------------------------|
|-------3p0------------7p0------------5p0---------------1p0-----------------|
|-----0-------0------0-------0------0-------0-------0-------2p0-------------|
|---2--------------5--------------4---------------2---2---------------------|
|-3---------3----7---------7----5---------5-----0---------------------------|
|---------------------------------------------------------------------------|

|---------------------------------------------------------------------------|
|---------------------------------------------------------------------------|
|--------------------2h4-5p42p0--------------------------------------------|
|-----2-5p2-4p2---4h5-------------------------------------------------------|
|---2------------(0)--------------------------------------------------------|
|-2--------------(0)--------------------------------------------------------|


Verse 									2x
|---------------------------------------------------------------------------|
|-----7----------5----------7-----------5----------5----------0-------------|
|-------0----------0----------0-----------0----------0----------0-----------|
|---5----------4----------5-----------4----------5----------2---------------|
|-7----------5----------7-----------5----------3----------0-----------------|
|---------------------------------------------------------------------------|

|---------------------------------------------------------------------------|
|---------------------------------------------------------------------------|
|--------------------2h4-5p42p0--------------------------------------------|
|-----2-5p2-4p2---4h5-------------------------------------------------------|
|-----2----------(0)--------------------------------------------------------|
|-----2----------(0)--------------------------------------------------------|
[ Tab from: http://www.guitaretab.com/b/billy-talent/190951.html ]
 Pre-Chorus 								2x
|---------------------------------------------------------------------------|
|-5-5-5-5-5-5-5-5-7-7-7-7-7-7-7-7-8-8-8-8-8-8-8-8-1010101010101010----------|
|-x-x-x-x-x-x-x-x-x-x-x-x-x-x-x-x-x-x-x-x-x-x-x-x-x-x-x-x-x-x-x-x-----------|
|-5-5-5-5-5-5-5-5-5-5-5-5-5-5-5-5-9-9-9-9-9-9-9-9-9-9-9-9-9-9-9-9-----------|
|-3-3-3-3-3-3-3-3-3-3-3-3-3-3-3-3-7-7-7-7-7-7-7-7-7-7-7-7-7-7-7-7-----------|
|---------------------------------------------------------------------------|


 Chorus 								2x
  1 2 3 4 1 2 3 4 1 2 3 4 1 2 3 4 1   2   3 + 4	1 2 3 4 1 2 3 4     
|---------------------------------------------------------------------------|
|-5-5-5-5-5-5-5-5-7-7-7-7-7-7-7-7-8---8---8-108-7-7-7-7-7-7-7-7-------------|
|-5-5-5-5-5-5-5-5-5-5-5-5-5-5-5-5-x---x---x-x-x-7-7-7-7-7-7-7-7-------------|
|-5-5-5-5-5-5-5-5-5-5-5-5-5-5-5-5-9---9---9-9-9-7-7-7-7-7-7-7-7-------------|
|-3-3-3-3-3-3-3-3-3-3-3-3-3-3-3-3-7---7---7-7-7-5-5-5-5-5-5-5-5-------------|
|---------------------------------------------------------------------------|

Post Chorus
|---------------------------------------------------------------------------|
|-5-5-5-5-5-5-5-5-7-7-7-7-7-7-7-7-8-8-8-8-8-8-8-8-1212121212121212----------|
|-5-5-5-5-5-5-5-5-5-5-5-5-5-5-5-5-x-x-x-x-x-x-x-x-x-x-x-x-x-x-x-x-----------|
|-5-5-5-5-5-5-5-5-5-5-5-5-5-5-5-5-9-9-9-9-9-9-9-9-1212121212121212----------|
|-3-3-3-3-3-3-3-3-3-3-3-3-3-3-3-3-7-7-7-7-7-7-7-7-1010101010101010----------|
|---------------------------------------------------------------------------|

|---------------------------------------------------------------------------|
|-1212121212121212-1010101010101010-1313131313131313-1212121212121212-------|
|-x-x-x-x-x-x-x-x--x-x-x-x-x-x-x-x---x-x-x-x-x-x-x-x--x-x-x-x-x-x-x-x-------|
|-1010101010101010-1010101010101010-1414141414141414-1414141414141414-------|
|-1212121212121212-1212121212121212-1212121212121212-1212121212121212-------|
|---------------------------------------------------------------------------|


Breakdown
|---------------------------------------------------------------------------|
|---------------3-3-3----------------3-3-3--5-5-5-5-5-5-5-5-7-7-7-7-7-7-7-7-|
|---------------2-2-2----------------2-2-2--5-5-5-5-5-5-5-5-5-5-5-5-5-5-5-5-|
|-2-2-2-5-4-2-4-0-0-0--2-2-2-5-4-2-4-0-0-0--5-5-5-5-5-5-5-5-5-5-5-5-5-5-5-5-|
|-2-2-2-----2---0-0-0--2-2-2-----2---0-0-0--3-3-3-3-3-3-3-3-3-3-3-3-3-3-3-3-|
|-2-2-2-----2---0-0-0--2-2-2-----2---0-0-0----------------------------------|

|---------------------------------------------------------------|
|---------------3-3-3----------------3-3-3----------------3-3-3-|
|---------------2-2-2----------------2-2-2----------------2-2-2-|
|-2-2-2-5-4-2-4-0-0-0--2-2-2-5-4-2-4-0-0-0--2-2-2-5-4-2-4-0-0-0-|
|-2-2-2-----2---0-0-0--2-2-2-----2---0-0-0--2-2-2-----2---0-0-0-|
|-2-2-2-----2---0-0-0--2-2-2-----2---0-0-0--2-2-2-----2---0-0-0-|

	      gradually let off --> x x x x x 
|----------------------------------------------------------------------------------|
|-5-5-5-5-5-5-5-5-7-7-7-7-7-7-7-7--------------------------------------------------|
|-5-5-5-5-5-5-5-5-5-5-5-5-5-5-5-5-----------------------2h4-5p4-2p0----------------|
|-5-5-5-5-5-5-5-5-5-5-5-5-5-5-5-5---2-2-2-2-2-2-2-2-4h5----------------------------|
|-3-3-3-3-3-3-3-3-3-3-3-3-3-3-3-3---2-2-2-2-2-2-2-2--------------------------------|
|-----------------------------------2-2-2-2-2-2-2-2--------------------------------|
                                 

Chorus 									2x
  1 2 3 4 1 2 3 4 1 2 3 4 1 2 3 4 1   2   3 + 4	1 2 3 4 1 2 3 4     
|---------------------------------------------------------------------------|
|-5-5-5-5-5-5-5-5-7-7-7-7-7-7-7-7-8---8---8-108-7-7-7-7-7-7-7-7-------------|
|-5-5-5-5-5-5-5-5-5-5-5-5-5-5-5-5-x---x---x-x-x-7-7-7-7-7-7-7-7-------------|
|-5-5-5-5-5-5-5-5-5-5-5-5-5-5-5-5-9---9---9-9-9-7-7-7-7-7-7-7-7-------------|
|-3-3-3-3-3-3-3-3-3-3-3-3-3-3-3-3-7---7---7-7-7-5-5-5-5-5-5-5-5-------------|
|---------------------------------------------------------------------------|

Post Chorus
|---------------------------------------------------------------------------|
|-5-5-5-5-5-5-5-5-7-7-7-7-7-7-7-7-8-8-8-8-8-8-8-8-1212121212121212----------|
|-5-5-5-5-5-5-5-5-5-5-5-5-5-5-5-5-x-x-x-x-x-x-x-x-x-x-x-x-x-x-x-x-----------|
|-5-5-5-5-5-5-5-5-5-5-5-5-5-5-5-5-9-9-9-9-9-9-9-9-1212121212121212----------|
|-3-3-3-3-3-3-3-3-3-3-3-3-3-3-3-3-7-7-7-7-7-7-7-7-1010101010101010----------|
|---------------------------------------------------------------------------|

									2x
|---------------------------------------------------------------------------|
|-1212121212121212-1010101010101010-1313131313131313-1212121212121212-------|
|-x-x-x-x-x-x-x-x--x-x-x-x-x-x-x-x---x-x-x-x-x-x-x-x--x-x-x-x-x-x-x-x-------|
|-1010101010101010-1010101010101010-1414141414141414-1414141414141414-------|
|-1212121212121212-1212121212121212-1212121212121212-1212121212121212-------|
|---------------------------------------------------------------------------|

|----|
|----|
|----|
|-2~-|
|-2~-|
|-2~-|


| /  slide up
| \  slide down
| h  hammer-on
| p  pull-off
| ~  vibrato
| +  harmonic
| x  Mute note
===============================================================================
Related for White Sparrows tab