Song name
# A B C D E F G H I J K L M N O P Q R S T U V W X Y Z

Black Keys - Stop Stop tab

The Black Keys - Stop Stop [Transposed half step down]

The intro is a two guitar section. Gtr 1 has to strum the chords downwards ONCE
above the tabs while Gtr 2 has to do the intro solo below:

Gtr 1:   C                          Cm

Gtr 2:E--------------------------------------------------------|
      B-------4-6--6/8--6-4-6-8----------4-6--6/8--6-4-6-4-----|
      G--5--5---------------------3-5--5-------------------5-3-|
      D--------------------------------------------------------|
      A--------------------------------------------------------|
      E--------------------------------------------------------|

Gtr 1:   F                          Fm
                                     
Gtr 2:E-------------------------------------------------------|
      B-------4-6--6/8--6-4-6/8---------------------6b8r6-4---|
      G--5--5---------------------3/5-----------------------3-|
      D-------------------------------------------------------|
      A-------------------------------------------------------|
      E-------------------------------------------------------|

[VERSE:]
C
You're wound up like a weapon
You've got an evil streak
They told me to stay away
But I was much too weak

[CHORUS:][Chords exactly aligned to the words you're supposed to strum them.]

                C     A#             F         F
Yeah, you gotta, stop stop can't you hear me call and singing
C      A#        F
  Stop stop it girl
F               C     A#             F        F
Yeah, you gotta, stop stop can't you see me fall into you
C      A#        F    F
  Stop stop it girl


C
I hounded you forever
But you never saw
This love was so strong it shoulda [DRUMS GO SILENT]
Been against the law

[PLAY CHORUS]

[PRE SOLO:] (Once played alone, continue repeating this section while the other guitar 
is playing the actual solo.)

E------------------------------------------------------------|
B------------------------------------------------------------|
G---------------------------------10--10--10--10--8--8--8--8-|
D-10--10--10--10--10--10--10--10--10--10--10--10--8--8--8--8-|
A-10--10--10--10--10--10--10--10-----------------------------|
E------------------------------------------------------------|


[SOLO:] Insanely use vibrato on B string.

E---------------------------------------------------------------------------|
B--5///13--13--13--13--13--13--13---13/11--11--11--11--11/10--10---10-11-10-|
G---------------------------------------------------------------------------|
D---------------------------------------------------------------------------|
A---------------------------------------------------------------------------|
E---------------------------------------------------------------------------|

E---------------------------------------------------------------------------|
B--5///13--13--13--13--13--13--13---13/11--11--11--11--11/10--10---10-11-10-|
G---------------------------------------------------------------------------|
D---------------------------------------------------------------------------|
A---------------------------------------------------------------------------|
E---------------------------------------------------------------------------|

E--------------------------------------------------------------------------|
B--5///13--13--13--13--5//13--13--13--13--13/11--11--11--11--11/10--10-----|
G------------10--10--10---------10--10--10---------------------------------|
D--------------------------------------------------------------------------|
A--------------------------------------------------------------------------|
E--------------------------------------------------------------------------|

E---------------------------------------------------------------|
B-8-8----8/10/8---6--6-8-8---8--8--8--6--6--4--4/6------4-------|
G---------------------------------------------------------------|
D---------------------------------------------------------------|
A---------------------------------------------------------------|
E---------------------------------------------------------------|

C
You tear me all apart
and then act so warm
like being cooled by the rain
in the eye of the storm

[PLAY CHORUS x2]

[Strum once:] C Cm F Fm

[OUTRO:]

     
E------------------------|
B------------------------|
G------------------------|
D------------------------|
A--3---------------------|
E------------------------|

Hope you like it!
Tap to rate this tab
# A B C D E F G H I J K L M N O P Q R S T U V W X Y Z