Song name
# A B C D E F G H I J K L M N O P Q R S T U V W X Y Z

Blues Brothers - Sweet Home Chicago tab

----------------------------------------------------------------------------
			     Sweet Home Chicago - The Blues Brothers
----------------------------------------------------------------------------

Tabbed by: RedMockingbird


Tuning: Standard

e|--------------------------------------------------------------------------|
B|-------18-18-------18-18------------18-18-------18-18---------------------|
G|-16b18-------16b18-------15---16b18-------16b18-------15-13----17-h20p-17-|
D|------------------------------------------------------------15------------|
A|--------------------------------------------------------------------------|
E|--------------------------------------------------------------------------|


e|--------------------------------------------------------------------------|
B|----------------------------------------------------6-----13\-------------|
G|-15 h17p-15-13-h15p-13-13-h15p-13---15-16-17--------5-----12\-------------|
D|---------------------------------15------------------------------5-7-7-5--|
A|-------------------------------------------------------------5--7--------7|
E|--------------------------------------------------------------------------|



************************************

| /   slide up
| \   slide down
| h   hammer-on
| p   pull-off
| ~   vibrato
| +   harmonic
| x   Mute note
| b   Bend
| pb  Pre-bend
| br  Bend release
| pbr Pre-bend release
| brb Bend release bend

************************************
Tap to rate this tab
 
# A B C D E F G H I J K L M N O P Q R S T U V W X Y Z