Guitaretab - guitar tabs
Song name
# A B C D E F G H I J K L M N O P Q R S T U V W X Y Z

Born Of Osiris - Open Arms To Damnation tab

#----------------------------------PLEASE NOTE---------------------------------#
#This file is the author's own work and represents their interpretation of the #
#song. You may only use this file for private study, scholarship, or research. #
#------------------------------------------------------------------------------#

Unfortunatly, I suck at tabbing things and therefore could not get some of 
the time signatures, note durations, weird chugging patterns, etc.  But for
 the most part, I think this tab is pretty close.  There are probably a few 
mistakes here and there, but itís the best I could do.
Tuning:  (C G C F A D)
4/4
  Gtr I
  E. E. E. E. E. S   S S E. S S S E. S S S S S
|------------------|---------------------------|
|------------------|---------------------------|
|------------------|---------------------------|
|------------------|---------------------------|
|----8--7--5--4--5-|-4-3-4--5-4-3-1--4-1-0---0-|
|-0----------------|-----------------------5---|
|
| Gtr II
| E. E. E. E. E. S   S S E. S S S E. S S S S S
|------------------|---------------------------|
|------------------|---------------------------|
|------------------|---------------------------|
|------------------|---------------------------|
|----5--4--1--0--1-|-0---0--1-0----------------|
|-0----------------|---5--------5-4--7-5-4-1-4-|


  E. E. E. E. E. S   S S E. S S S S S S S S S S S
|------------------|------------------------3-------|
|------------------|----------------------5---5-----|
|------------------|------------------3-6-------6---|
|------------------|--------------2-5---------------|
|----8--7--5--4--5-|-4-3-4--5-4-3-------------------|
|-0----------------|--------------------------------|
|
| E. E. E. E. E. S   S S E. S S S S S S S S S S S
|------------------|--------------------------------|
|------------------|--------------------------------|
|------------------|----------------------6-9-6-----|
|------------------|------------------5-8-------8---|
|----5--4--1--0--1-|-0---0--1-0---4-7---------------|
|-0----------------|---5--------5-------------------|


  E. E. E. E. E. S   S S E. S S S E. S S S S S
|------------------|---------------------------|
|------------------|---------------------------|
|------------------|---------------------------|
|------------------|---------------------------|
|----8--7--5--4--5-|-4-3-4--5-4-3-1--4-1-0---0-|
|-0----------------|-----------------------5---|
|
| E. E. E. E. E. S   S S E. S S S E. S S S S S
|------------------|---------------------------|
|------------------|---------------------------|
|------------------|---------------------------|
|------------------|---------------------------|
|----5--4--1--0--1-|-0---0--1-0----------------|
|-0----------------|---5--------5-4--7-5-4-1-4-|


  E. E. E. E. E. S   S S E. S S S E Q.
|------------------|---------------------|
|------------------|---------------------|
|------------------|---------------------|
|----7--5--3--2--3-|-2-0-2--3-2-0--------|
|------------------|--------------4------|
|-0----------------|---------------------|
|
| E. E. E. E. E. S   S S E. S S S E Q.
|------------------|---------------------|
|------------------|---------------------|
|------------------|---------------------|
|------------------|---------------------|
|----5--4--1--0--1-|-0---0--1-0----------|
|-0----------------|---5--------5-4------|


|-----------------------|
|-----------------------|
|-----------------------|
|--------------0--0-----|
|-------/6-----0--0-----|
|-1--0------4--0--0-----|


|-----------------------|
|-----------------------|
|-----------------------|
|-----------4----0--0---|
|---------------0--0----|
|--0--1--0-----4-0--0---|
|
|   Gtr II
|  
|-----------------------|
|-----------------------|
|-----------------------|
|----------------0--0---|
|----------6----0--0----|
|--0--1--0-----4-0--0---|


  PM-----------------------------------
  E. E. E. E. E. E.  E. E. E E E. E.
|------------------------------------|
|------------------------------------|
|------------------------------------|
|-0--0--0--0--0--0---0--0--0-0-0--0--|
|-0--0--0--0--0--0---0--0--0-0-0--0--|
|-0--0--0--0--0--0---0--0--0-0-0--0--|


 ----|
                     |-3-|
  E. E. e. e. e. e.  S S S q  e. e. e. e.  e. e. e.
|----------------------------------------------------|
|----------------------------------------------------|
|----------------------------------------------------|
|-0--0--0--0--0--0---0-0-0-0--0--0--0--0---0--0--0---|
|-0--0--0--0--0--0---0-0-0-0--0--0--0--0---0--0--0---|
|-0--0--0--0--0--0---0-0-0-0--0--0--0--0---0--0--0---|


4/4
  E. E. E E.  E.  E..   E. E. E. E.  E.  E.
|---------------------|---------------------|
|---------------------|-8--6------------10--|
|---------------------|-------------10------|
|------------/7--10---|-------7--8----------|
|---------------------|---------------------|
|-0--3--0-8-----------|---------------------|
|
| Gtr II
| E. E. E E.  E.  E..   E. E. E. E.  E.  E.
|---------------------|---------------------|
|---------------------|-8--6----------------|
|---------------------|-------------10--10--|
|------------/7--10---|-------7--8----------|
|---------------------|---------------------|
|-0--3--0-8-----------|---------------------|


  E. E. E  S S S S S S  S S   S  S  S  S  H     +E    S S H    +E
|---------------------------|-----------------------|-----------------|
|---------------------------|------------10----(10)-|-8-6-8----(8)----|
|-7--5----------------------|-----------------------|-----------------|
|-------7--3-5-7-5-5-7--8-7-|-7--8-10--8------------|-----------------|
|---------------------------|-----------------------|-----------------|
|---------------------------|-----------------------|-----------------|
|
| E. E. E  S S S S S S  S S   S  S  S  S  H     +E    S S H    +E
|---------------------------|-----------------------|-----------------|
|---------------------------|-----------------------|-----------------|
|---------------------------|------------10----(10)-|-9-7-9----(9)----|
|-8--7----------------------|-----------------------|-----------------|
|-------8--5-7-8-7-7-8-10-8-|-8-10-12-10------------|-----------------|
|---------------------------|-----------------------|-----------------|


 6/8
  E  E  E  E  E  E   E E  E  E  E E   E  E  E  E  E  E    E  E  E  E  E  E
|------------------|----------------|------------------|----------------13-|
|------------------|----------------|------------------|----------13-15----|
|---------14-------|--------10------|---------14----14-|-15----------------|
|---10-12----12-10-|---7--8-----8-7-|---10-12----12----|----14-15----------|
|------------------|----------------|------------------|-------------------|
|-0----------------|-0--------------|-0----------------|-------------------|
|
| E  E  E  E  E  E   E E  E  E  E E   E  E  E  E  E  E    E  E  E  E  E  E
|------------------|----------------|------------------|-------------------|
|------------------|----------------|------------------|----------------15-|
|------------------|----------------|------------------|-12-------14-15----|
|---------15-------|--------12------|---------15----15-|----10-12----------|
|---12-13----13-12-|---8-10----10-8-|---12-13----13----|-------------------|
|-0----------------|-0--------------|-0----------------|-------------------|


  E  E  E  E  E  E   E  E  E  E  E  E   E  E  E  E  E  E    E  E  E  E  E  E
|------------------|------------------|------------------|----------------13----|
|------------------|------------------|------------------|----------13-15-------|
|---------14-------|---------10-------|---------14----14-|-15-------------------|
|---10-12----12-10-|----7--8-----8--7-|---10-12----12----|----14-15-------------|
|------------------|------------------|------------------|----------------------|
|-0----------------|-0----------------|-0----------------|----------------------|
|
| E  E  E  E  E  E   E  E  E  E  E  E   E  E  E  E  E  E    E  E  E  E  E  E
|------------------|------------------|------------------|----------------17----|
|---------13-------|------------------|---------13----13-|-15-------17-18-------|
|----9-10----10--9-|---------14-------|----9-10----10----|----12-14-------------|
|------------------|---10-12----12-10-|------------------|----------------------|
|------------------|------------------|------------------|----------------------|
|-0----------------|-0----------------|-0----------------|----------------------|


Chugs the low C here for a while



 8/16
  PM|   PM|
  S S E S S E
|----------------|
|----------------|
|----------------|
|----------------|
|----------------|
|-3-3-7-3-3-6----|
|
| PM|   PM|
| S S E S S E
|----------------|
|----------------|
|----------------|
|----------------|
|----------------|
|-3-3-4-3-3-3----|


 4/4
    PM----------------------------------|
  E E E E S S E E E   E S S E E E E S S E
|-------------------|---------------------|
|-------------------|---------------------|
|-------------------|---------------------|
|-3-1-4-1-3-3-0-1-4-|-1-3-3-0-1-4-1-3-3-0-|
|-3-1-4-1-3-3-0-1-4-|-1-3-3-0-1-4-1-3-3-0-|
|-3-1-4-1-3-3-0-1-4-|-1-3-3-0-1-4-1-3-3-0-|

[ Tab from: http://www.guitaretab.com/b/born-of-osiris/103692.html ]
 8/16
  PM|    PM|
  S S  E S S E
|-----------------|
|-----------------|
|-----------------|
|-----------------|
|-----------------|
|-3-3--7-3-3-6----|
|
| PM|    PM|
| S S  E S S E
|-----------------|
|-----------------|
|-----------------|
|-----------------|
|-----------------|
|-7-7-10-7-7-9----|


 4/4
    PM----------------------------------------------------------------|
  E S S  S  S S S S S S S S S  S  S   S S S S S S S S  S  S S S S S S S
|-----------------------------------|-------------------------------------|
|-----------------------------------|-------------------------------------|
|-----------------------------------|-------------------------------------|
|-3-4-4--7--7-4-4-6-6-3-3-4-4--7--7-|-4-4-6-6-3-3-4-4--7--7-4-4-6-6-3-3---|
|-3-4-4--7--7-4-4-6-6-3-3-4-4--7--7-|-4-4-6-6-3-3-4-4--7--7-4-4-6-6-3-3---|
|-3-4-4--7--7-4-4-6-6-3-3-4-4--7--7-|-4-4-6-6-3-3-4-4--7--7-4-4-6-6-3-3---|
|
|   PM----------------------------------------------------------------|
| E S S  S  S S S S S S S S S  S  S   S S S S S S S S  S  S S S S S S S
|-----------------------------------|-------------------------------------|
|-----------------------------------|-------------------------------------|
|-----------------------------------|-------------------------------------|
|-6-7-7-10-10-7-7-9-9-6-6-7-7-10-10-|-7-7-9-9-6-6-7-7-10-10-7-7-9-9-6-6---|
|-6-7-7-10-10-7-7-9-9-6-6-7-7-10-10-|-7-7-9-9-6-6-7-7-10-10-7-7-9-9-6-6---|
|-6-7-7-10-10-7-7-9-9-6-6-7-7-10-10-|-7-7-9-9-6-6-7-7-10-10-7-7-9-9-6-6---|


 8/16
   PM|      PM|
   S  S  E  S  S  E
|----------------------|
|----------------------|
|----------------------|
|----------------------|
|----------------------|
|-10-10-13-10-10-12----|
|
|  PM|      PM|
|  S  S  E  S  S  E
|----------------------|
|----------------------|
|----------------------|
|----------------------|
|----------------------|
|--7--7-10--7--7--9----|


 4/4
    PM----------------------------------|
  E E E E S S E E E   E S S E E E E S S E
|-------------------|---------------------|
|-------------------|---------------------|
|-------------------|---------------------|
|-9-1-4-1-3-3-0-1-4-|-1-3-3-0-1-4-1-3-3-0-|
|-9-1-4-1-3-3-0-1-4-|-1-3-3-0-1-4-1-3-3-0-|
|-9-1-4-1-3-3-0-1-4-|-1-3-3-0-1-4-1-3-3-0-|
|
|   PM----------------------------------|
| E E E E S S E E E   E S S E E E E S S E
|-------------------|---------------------|
|-------------------|---------------------|
|-------------------|---------------------|
|-6-1-4-1-3-3-0-1-4-|-1-3-3-0-1-4-1-3-3-0-|
|-6-1-4-1-3-3-0-1-4-|-1-3-3-0-1-4-1-3-3-0-|
|-6-1-4-1-3-3-0-1-4-|-1-3-3-0-1-4-1-3-3-0-|


    PM----------------------------------|
  E E E E S S E E E   E S S E E E E S S E
|-------------------|------------------------|
|-------------------|------------------------|
|-------------------|------------------------|
|---1-4-1-3-3-0-1-4-|-1-3-3-0-1-4-1-3-3-0----|
|---1-4-1-3-3-0-1-4-|-1-3-3-0-1-4-1-3-3-0----|
|---1-4-1-3-3-0-1-4-|-1-3-3-0-1-4-1-3-3-0----|
|
|   PM----------------------------------|
| E E E E S S E E E   E S S E E E E S S E
|-------------------|------------------------|
|-------------------|------------------------|
|-------------------|------------------------|
|---1-4-1-3-3-0-1-4-|-1-3-3-0-1-4-1-3-3-0----|
|---1-4-1-3-3-0-1-4-|-1-3-3-0-1-4-1-3-3-0----|
|---1-4-1-3-3-0-1-4-|-1-3-3-0-1-4-1-3-3-0----|

4/4
  W          +W            W           +E    E  E  E  E  E E  E
|----------|------------|-----------|---------------------------|
|----------|------------|-----------|---------------------------|
|----------|------------|-----------|---------------------------|
|-0--------|-(0)--------|-10--------|-(10)--12-10---------------|
|-0--------|-(0)--------|--8--------|--(8)--------13-12-10-8-10-|
|-0--------|-(0)--------|--8--------|--(8)----------------------|


Chugs the low C for a while again


  E. E. E. E. E. S   S S E. S S S E. S S S S S
|------------------|---------------------------|
|------------------|---------------------------|
|------------------|---------------------------|
|------------------|---------------------------|
|----8--7--5--4--5-|-4-3-4--5-4-3-1--4-1-0---0-|
|-0----------------|-----------------------5---|
|
| E. E. E. E. E. S   S S E. S S S E. S S S S S
|------------------|---------------------------|
|------------------|---------------------------|
|------------------|---------------------------|
|------------------|---------------------------|
|----5--4--1--0--1-|-0---0--1-0----------------|
|-0----------------|---5--------5-4--7-5-4-1-4-|


  E. E. E. E. E. S   S S E. S S S S S S S S S S S
|------------------|------------------------3-----|
|------------------|----------------------5---5---|
|------------------|------------------3-6-------6-|
|------------------|--------------2-5-------------|
|----8--7--5--4--5-|-4-3-4--5-4-3-----------------|
|-0----------------|------------------------------|
|
| E. E. E. E. E. S   S S E. S S S S S S S S S S S
|------------------|------------------------------|
|------------------|------------------------------|
|------------------|----------------------6-9-6---|
|------------------|------------------5-8-------8-|
|----5--4--1--0--1-|-0---0--1-0---4-7-------------|
|-0----------------|---5--------5-----------------|


  E. E. E. E. E. S   S S E. S S S E. S S S S S
|------------------|---------------------------|
|------------------|---------------------------|
|------------------|---------------------------|
|------------------|---------------------------|
|----8--7--5--4--5-|-4-3-4--5-4-3-1--4-1-0---0-|
|-0----------------|-----------------------5---|
|
| E. E. E. E. E. S   S S E. S S S E. S S S S S
|------------------|---------------------------|
|------------------|---------------------------|
|------------------|---------------------------|
|------------------|---------------------------|
|----5--4--1--0--1-|-0---0--1-0----------------|
|-0----------------|---5--------5-4--7-5-4-1-4-|


  E. E. E. E. E. S   S S E. S S S E Q.
|------------------|---------------------|
|------------------|---------------------|
|------------------|---------------------|
|----7--5--3--2--3-|-2-0-2--3-2-0--------|
|------------------|--------------4------|
|-0----------------|---------------------|
|
| E. E. E. E. E. S   S S E. S S S E Q.
|------------------|---------------------|
|------------------|---------------------|
|------------------|---------------------|
|------------------|---------------------|
|----5--4--1--0--1-|-0---0--1-0----------|
|-0----------------|---5--------5-4------|


6/4
  S S S S S S S S S S S S S S S S S S S S S S S S
|----------------------------------------------------|
|----------------------------------------------------|
|----------------------------------------------------|
|-0-0-0---0---0-0---0---0-0-0-0---0---0-0---0---0----|
|-0-0-0---0---0-0---0---0-0-0-0---0---0-0---0---0----|
|-0-0-0---0---0-0---0---0-0-0-0---0---0-0---0---0----|

For the outro (below) he chugs the low C under it AGAIN!

   4/4
    |-3-| |-3-|  |-3--|  |-3--|    |--3--| |--3--|  |-3--|  |-3--|
    E E E E E E  E  E E  E E  E    E  E  E E  E  E  E E  E  E  E E     7x
||--------5---------6----5----8--|----6----5h=6------------------------||
||o------------------------------|------------------8-6--------5------o||
||--7-7-7---7-7--7----7----7-----|-7-----7-------7-------7--5----7-----||
||-------------------------------|-------------------------------------||
||o------------------------------|------------------------------------o||
||-------------------------------|-------------------------------------||
|
|   |-3-| |-3-|  |-3--|  |-3--|    |--3--| |--3--|  |-3--|  |-3--|
|   E E E E E E  E  E E  E E  E    E  E  E E  E  E  E E  E  E  E E     7x
||-------------------------------|-------------------------------------||
||o------------------------------|------------------------------------o||
||--------2---------3----2----5--|----3----2h=3------------------------||
||--0-0-0---0-0--0----0----0-----|-0-----0-------0--5-3--0-----2-0-----||
||o------------------------------|--------------------------3---------o||
||-------------------------------|-------------------------------------||


 
Duration Legend
---------------
W - whole; H - half; Q - quarter; E - 8th; S - 16th; T - 32nd; X - 64th; a - acciaccatura
+ - note tied to previous; . - note dotted; .. - note double dotted
Uncapitalized letters represent notes that are staccato (1/2 duration)
Irregular groupings are notated above the duration line
Duration letters will always appear directly above the note/fret number it represents the
duration for.  Duration letters with no fret number below them represent rests.  Multi-
bar rests are notated in the form Wxn, where n is the number of bars to rest for.  Low
melody durations appear below the staff

Tablature Legend
----------------
 h   - hammer-on
 p   - pull-off
 b   - bend
 pb  - pre-bend
 r   - bend release (if no number after the r, then release immediately)
 /\  - slide into or out of (from/to "nowhere")
 s   - legato slide
 S   - shift slide
 - natural harmonic
[n]  - artificial harmonic
n(n) - tapped harmonic
 ~   - vibrato
 tr  - trill
 T   - tap
 TP  - trem. picking
 PM  - palm muting
\n/  - tremolo bar dip; n = amount to dip
 \n  - tremolo bar down
 n/  - tremolo bar up
/n\  - tremolo bar inverted dip
 =   - hold bend; also acts as connecting device for hammers/pulls
 <> - volume swell (louder/softer)
 x   - on rhythm slash represents muted slash
 o   - on rhythm slash represents single note slash

Misc Legend
-----------
 |  - bar
||  - double bar
||o - repeat start
o|| - repeat end
*|  - double bar (ending)
 :  - bar (freetime)
 $  - Segno
 &  - Coda
Tempo markers -  = BPM(8/16=s8/s16), where s8 = swing 8ths, s16 = swing 16ths


Related for Open Arms To Damnation tab