Song name
# A B C D E F G H I J K L M N O P Q R S T U V W X Y Z

Born Of Osiris - Follow The Signs tab

Since I know noone else will actually tab it out,I thought I'd be the first to.There is 
only one video tutorial and I learned it by ear and some by watching.I have not finished 
the whole thing and will repost when I have the whole solo for you.So here you go.Enjoy!
po=pull off  ho=hammer on  ft=finger tap  v=vibrato

e/-17pf13-------------------------------13-21-17--17------17-21-------------|
B/-------15ho18-15--15----------------15--------18--18--18-----18-----------|
G/----------------14--14---14-------14----------------17---------17---------|
D/-----------------------15--15---15-------------------------------19--11---|
A/------------------------------17-----------------------------------20--12-|
D/--------------------------------------------------------------------------|

e/-------9-12-17-13------13-17-13-19-13-17-13----------13------------------|
B/-----10----------14--14--------------------14--13--12--12-14--11---------|
G/----9--------------15------------------------15--14---------11--10-11-7--|
D/--12-------------------------------------------------------------------8-|
A/11-----------------------------------------------------------------------|
D/-------------------------------------------------------------------------|

e/---------------------16-20-16-21-16-------|
B/----------14-18-14-18--------------18-----|
G/--14-17-14---------------------------17---|
D/15-------------------------------------18-|
A/------------------------------------------|
D/------------------------------------------|

That is all I've learned so far.Stick around for my finished repost.
Tap to rate this tab
 
# A B C D E F G H I J K L M N O P Q R S T U V W X Y Z