Song name
# A B C D E F G H I J K L M N O P Q R S T U V W X Y Z

Bullet For My Valentine - Pleasure And Pain tab

        This is my first tab so hopefully it's all right.  Enjoi.


    Tuning: Drop C (CGCFAD)

    Guitar 1  (Intro) x4

    |------------------------------------------------------------------|
    |------------------------------------------------------------------|
    |------------------------------------------------------------------|
    |--3-5-5-5-5-5-5-5-3-5-5-5-5-5-5-3-5-5-5-3-5-5-5-5-5-5-5-----------|
    |------------------------------------------------------------------|
    |------------------------------------------------------------------|

    Guitar 2
    
    |------------------------------------------------------------------|    
    |------------------------------------------------------------------|
    |------------------------------------------------------------------|
    |--0---------------------------------------------------------------|
    |--0--(let it ring throught until both guitars play together)------|
    |--0---------------------------------------------------------------|

    Guitar 1

    |------------------------------------------------------------------|
    |------------------------------------------------------------------|
    |------------------------------------------------------------------|
    |------------------------------------------------------------------|
    |----3-5-5-5-5-5-5-6-3-5-5-5-5-5-5-5-3-5-5-5-5-5-5-5-3-5-5-5-------|
    |------------------------------------------------------------------|

   Both guitars

    |------------------------------------------------------------------|
    |------------------------------------------------------------------|
    |------------------------------------------------------------------|
    |---2-3-3-3--3-5-5-5--5-7-7-7--7-8-8-8-----------------------------|
    |------------------------------------------------------------------|
    |------------------------------------------------------------------|

    Guitar 1&2  (Verse) x4

    |------------------------------------------------------------------|
    |------------------------------------------------------------------|
    |------------------------------------------------------------------|
    |------------------------------------------------------------------|
    |---3-5-5-5-5-5-5-5-3-5-5-5-5-5-5-5-3-5-5---3-5-5-5-5-5-5-5--------|
    |------------------------------------------------------------------|

    |------------------------------------------------------------------|
    |------------------------------------------------------------------|
    |------------------------------------------------------------------|
    |------------------------------------------------------------------|
    |--3-5-5-5-5-5-5-6-3-5-5-5-5-5-5-5-3-5-5-5-5-5-5-5-3-5-5-----------|
    |------------------------------------------------------------------|
                                             On third time------->***
    |----------------------------------------------------------|-------|
    |----------------------------------------------------------|-------|
    |----------------------------------------------------------|-------|
    |---2-3-3-3--3-5-5-5--5-7-7-7--7-8-8-8---------------------|-------|
    |----------------------------------------------------------|-------|
    |----------------------------------------------------------|-12/---|

    Both guitars (Pre-Chorus) x1

    |-----------------------|
    |-----------------------|
    |-----------------------|
    |-0~----x//////////////x|
    |-0~----x//Pick Slide//x|
    |-0~----x//////////////x||

    Both Guitars  (Chorus) x1

    |------------------------------------------------------------------|
    |------------------------------------------------------------------|
    |------------------------------------------------------------------|
    |----------------------------------3--3-3-3-3-3-3-3-3-3-3-3-3------|
    |--5-5-5-5-5-5-5-5-5-5-5-5-5-5-5-5-3--3-3-3-3-3-3-3-3-3-3-3-3------|
    |----------------------------------3--3-3-3-3-3-3-3-3-3-3-3-3------|

    |------------------------------------------------------------------|
    |------------------------------------------------------------------|
    |------------------------------------------------------------------|
    |----------------------------------7--7-7-7-7-7-8--8-8-8-8-8-------|
    |--5-5-5-5-5-5-5-5-5-5-5-5-5-5-5-5-7--7-7-7-7-7-8--8-8-8-8-8-------|
    |----------------------------------7--7-7-7-7-7-8--8-8-8-8-8-------|

    |------------------------------------------------------------------|
    |------------------------------------------------------------------|
    |------------------------------------------------------------------|
    |----------------------------------3--3-3-3-3-3-3-3-3-3-3-3-3------|
    |--5-5-5-5-5-5-5-5-5-5-5-5-5-5-5-5-3--3-3-3-3-3-3-3-3-3-3-3-3------|
    |----------------------------------3--3-3-3-3-3-3-3-3-3-3-3-3------|

    |------------------------------------------------------------------|
    |------------------------------------------------------------------|
    |------------------------------------------------------------------| 
    |----------------------------------8--8-8-8-8-8-10--10-10-10-10-10-|
    |--5-5-5-5-5-5-5-5-5-5-5-5-5-5-5-5-8--8-8-8-8-8-10--10-10-10-10-10-|
    |----------------------------------8--8-8-8-8-8-10--10-10-10-10-10-|

    Both Guitars  (On second chorus play an extra 8 and 10 power chord)

    Guitar 1 (Outro 1)  x2

    |------------------------------------------------------------------|
    |------------------------------------------------------------------|
    |------------------------------------------------------------------|
    |--\12--14-15-12--14-15-12-14-15-12-14-15---14-15-12--14-15-12-----|
    |----------------------------------------15------------------------|
    |------------------------------------------------------------------|

    |----------------------------------------|
    |----------------------------------------|
    |--------------------------14--15--------|
    |--14-15-12-14-15-12-14-15---12--12-14~--|
    |----------------------------------------|
    |----------------------------------------|
                                 .    .
    Guitar 2  

    |------------------------------------------------------------------|
    |------------------------------------------------------------------|
    |------------------------------------------------------------------|
    |-0--0-3-0--0-3-0-0-3-0-0-3-10--0-3-0--0-3-0--0-3-0-0-3-0-0-3------|
    |-0--0-3-0--0-3-0-0-3-0-0-3-10--0-3-0--0-3-0--0-3-0-0-3-0-0-3------|
    |-0--0-3-0--0-3-0-0-3-0-0-3-10--0-3-0--0-3-0--0-3-0-0-3-0-0-3------|

    |------------------------|
    |------------------------|
    |------------------------|
    |-8-8-8-8-10-10-10-10----|
    |-8-8-8-8-10-10-10-10----|
    |-8-8-8-8-10-10-10-10----|
      . . . . .  .  .  .   

     Guitar 1  (Solo) x1

   |--10--12--13---20--15b--15p13h15---------17--------15-------------|
   |--13b-15b-16b--------------------15-18-15--15-18-15--15-18-15-----|
   |------------------------------------------------------------------|
   |------------------------------------------------------------------|
   |------------------------------------------------------------------|
   |------------------------------------------------------------------|

   |--12-13-12-------------------13-----------15----------------------|
   |-----------13b-------13h15p13--15-13h15p13--(for however long)----|
   |---------------12-10----------------------------------------------|
   |------------------------------------------------------------------|
   |------------------------------------------------------------------|
   |------------------------------------------------------------------|

   |------------------------------------------------------------------|
   |--20p17h18p17-15-13-15-13-----------------------------------------|
   |--------------------------15-14-12--------------------------------|
   |----------------------------------15-14-12------------------------|
   |------------------------------------------------------------------|
   |------------------------------------------------------------------|

   |----------------------------------------------------22~-----------|
   |-------15-17-18-----15-17-20---17-18-20-22--17-18-20--------------|
   |--15-17--------15-17---------17-----------17----------------------|
   |------------------------------------------------------------------|
   |------------------------------------------------------------------|
   |------------------------------------------------------------------|
 
   Guitar 2 (Rythem)  x2

   |------------------------------------------------------------------|
   |------------------------------------------------------------------|
   |------------------------------------------------------------------|
   |-0--0-0-0-0-0-0-0-0-0-0-0-3--3-3-3-3-3-3-3-3-3-3-3-12--12-12-12-12|
   |-0--0-0-0-0-0-0-0-0-0-0-0-3--3-3-3-3-3-3-3-3-3-3-3-12--12-12-12-12|
   |-0--0-0-0-0-0-0-0-0-0-0-0-3--3-3-3-3-3-3-3-3-3-3-3-12--12-12-12-12|

   |-----------------------------------------------|
   |-----------------------------------------------|    
   |-----------------------------------------------|
   |-8--8-8-8-8-8-8-10--10-10-10-10-10-10-10-------|
   |-8--8-8-8-8-8-8-10--10-10-10-10-10-10-10-------|
   |-8--8-8-8-8-8-8-10--10-10-10-10-10-10-10-------|
        . . . . . . .      .  .  .  .  .  .
    Guitar 2  (Outro 2) x1

    *First part of Intro*

    Song List or Road Map:

    -Intro
    -Verse
    -Pre-Chorus
    -Chorus
    -Intro
    -Verse
    -Pre-Chorus
    -Chorus
    -Last Part of second Chorus
    -Outro 1
    -Solo and Rythem
    -Outro 2
    -Chorus
    -Intro

    -Enjoi!
Tap to rate this tab
 
# A B C D E F G H I J K L M N O P Q R S T U V W X Y Z