Song name
# A B C D E F G H I J K L M N O P Q R S T U V W X Y Z

Charles Bronson - Eazy Es Fucking Dead And I Think Its Fucking Rad tab

notes with "." under are palm muted

(VERSE 1)
E |---------------------------------------------|
B |---------------------------------------------|
G |---------------------------------------------|
D |-7-7-7--5-5-5--10-10-10--7-7-7--5-5-5--3-3-3-| x3
A |-5-5-5--3-3-3---8--8--8--5-5-5--3-3-3--1-1-1-|
E |---------------------------------------------|

(VERSE 2)
e |---------------------------------------------|
B |---------------------------------------------|
G |---------------------------------------------|
D |-7-7-7-7-7-7-7-7-7-7-7-7-7-------------------|
A |-5-5-5-5-5-5-5-5-5-5-5-5-5-------------------|
E |-.-.-.-.-.-.-.-.-.-.-.-.---------------------|

(VERSE 3)
e |--------------------------------------------------------------|
B |--------------------------------------------------------------|
G |--------------------------------------------------------------|
A |-7-7-7--5-5-5--7-7-7--10-10-10--7-7-7--5-5-5--7-7-7--12-12-12-| x2
D |-5-5-5--3-3-3--5-5-5---8--8--8--5-5-5--3-3-3--5-5-5--10-10-10-|
E |--------------------------------------------------------------|

(VERSE 2)
e |---------------------------------------------|
B |---------------------------------------------|
G |---------------------------------------------|
D |-7-7-7-7-7-7-7-7-7-7-7-7-7-------------------|
A |-5-5-5-5-5-5-5-5-5-5-5-5-5-------------------|
E |-.-.-.-.-.-.-.-.-.-.-.-.---------------------|

(VERSE 1)
E |---------------------------------------------|
B |---------------------------------------------|
G |---------------------------------------------|
D |-7-7-7--5-5-5--10-10-10--7-7-7--5-5-5--3-3-3-| x3
A |-5-5-5--3-3-3---8--8--8--5-5-5--3-3-3--1-1-1-|
E |---------------------------------------------|


Tap to rate this tab
 
# A B C D E F G H I J K L M N O P Q R S T U V W X Y Z