Charles Bronson - I Cant Be In A Band With You Because You Like Epitaph tab

(VERSE 1)
e |-----------------------------------|
B |-----------------------------------|
G |-----------------------------------|
D |------9-9--8-8---------------------| x6
A |-7-7--7-7--6-6--8-8----------------|
E |-5-5------------6-6----------------|

(VERSE 2)
e |-----------------------------------|
B |-----------------------------------|
G |-----------------------------------|
D |--------------------9-9--8-8-------| x2
A |-5-x-7--5-x-7--7-7--7-7--6-6--8-8--|
E |-3-x-5--3-x-5--5-5------------6-6--|

(VERSE 1)
e |-----------------------------------|
B |-----------------------------------|
G |-----------------------------------|
D |------9-9--8-8---------------------| x4
A |-7-7--7-7--6-6--8-8----------------|
E |-5-5------------6-6----------------|


(VERSE 2)
e |-----------------------------------|
B |-----------------------------------|
G |-----------------------------------|
D |--------------------9-9--8-8-------| x2
A |-5-x-7--5-x-7--7-7--7-7--6-6--8-8--|
E |-3-x-5--3-x-5--5-5------------6-6--|
Tap to rate this tab
 
# A B C D E F G H I J K L M N O P Q R S T U V W X Y Z