Song name
# A B C D E F G H I J K L M N O P Q R S T U V W X Y Z

Circle Jerks - Live Fast Die Young tab

e|-------------------------------|
B|-------------------------------|
G|-------------------------------|
D|-----------------------7-------|    x6
A|-9-9-9-9-10-10-10-10-7-5-7-----|
E|-7-7-7-7-8--8--8--8--5---5-----|


e|----------------------------------------------------|
B|----------------------------------------------------|
G|----------------------------------------------------|
D|-9-9-9-x-x-7-7-7-x-x--------------------------------|   x2
A|-7-7-7-x-x-5-5-5-x-x-9-9-9-9-9-9-7-9-9-9-9-9-9-7----|
E|---------------------7-7-7-7-7-7-5-7-7-7-7-7-7-5----|

i didnt bother tabbing the solo
anything wrong with this, well than rate it bad
peace
Tap to rate this tab
# A B C D E F G H I J K L M N O P Q R S T U V W X Y Z