Song name
# A B C D E F G H I J K L M N O P Q R S T U V W X Y Z

Clutch - Electric Worry chords

Highlighted       Show chord diagrams
Electric Worry. Nothing else needs to be said!...
...Except that you should only really play the last (thickest) couple of strings. Don't worry too much about hitting the higher notes. You could get away with playing the power chords here

Tuning: Standard (EADGBE)

|--------------------------------------------------------------------------|
|--------------------------------------------------------------------------|
|-------------3v--5-5p0----------------------------------------------------|
|--3p0-5-5---------------3-3/5v-3p0-3-4-5v--------5v---3--3p0--------------|
|--------------------------------------------------------------------------|
|--------------------------------------------6p3-----------------6-3v------|

 
                                                             Gm  Gm Bb  F
|------------------------------------------8--6v--------------3--3--1---1-|
|-------------------------------------------------------------3--3--2---1-|
|------------------------------------------------------5--3v--5--5--2---2-|
|---3-3h5-----3v---3-3h5----------------5-----------5---------5--5--3---3-|
|-------------------------------------------------------------3--3--1---3-|
|---------6p3------------6--3h3~------------------------------3--3--x---1-|


[Intro Played Over This]
Well you made me weep and you made me moan
When you caused me to leave, child, my happy home.
But someday, baby, you ainít gonna worry my life anymore.

G5                     C5(2)Bb5 F5
I get satisfaction everywhere I go.
G5                     C5(2)  Bb5   F5
Where I lay my head - thats where I call home.
G5                     C5(2)Bb5 F5
Wh5ether barren pines, or the mission stare,
G5                     C5(2)Bb5 F5
Take tomorrows collar and give Ďem back the glare.

C5(2) Bb5       F5   (Repeat as necessary)              
Bang, bang, bang, bang! Vamanos, vamanos.
C5(2) Bb5       F5   (Repeat as necessary) 
Bang, bang, bang! Vamanos, vamanos.

[Intro Played Over This]
You told everybody in the neighborhood
                                    
what a dirty mistreater. That I was no good.

But someday, baby, you ainít gonna worry my life anymore.

G5                  C5(2)Bb5 F5
Doctor or lawyer, Iíll never be.
G5                     C5(2)Bb5 F5
Life of a drifter - only life for me,
G5                     C5(2)Bb5 F5
You can have your riches, all the gold you saved.
G5                     C5(2)Bb5 F5
Cause ainít room for one thing in everybodys grave.

C5(2) Bb5       F5   (Repeat as necessary)    
Bang, bang, bang, bang! Vamanos, vamanos!
C5(2) Bb5       F5   (Repeat as necessary)   
Bang, bang, bang! Vamanos, vamanos!


[Intro Played Over This]
If I had money, like Henry Ford,

Lord, Iíd have me a woman, yeah on every road.
                                            
But Someday, baby, you ainít gonna worry my life any more.
 
G5            C5(2)Bb5 F5 
Invocation of the dummies, requiem for a head,
G5                  C5(2)Bb5 F5
Cash in at the corner, piles of street cred.
G5                  C5(2)Bb5 F5
I get satisfaction everywhere I go.
G5                  C5(2)Bb5 F5
One day baby youíll worry me no more.


C5(2) Bb5       F5   (Repeat as necessary)  
Bang, bang, bang, bang! Vamanos, vamanos!
C5(2) Bb5       F5   (Repeat as necessary)    
Bang, bang, bang! Vamanos, vamanos!






Tap to rate this tab
 
# A B C D E F G H I J K L M N O P Q R S T U V W X Y Z