Song name
# A B C D E F G H I J K L M N O P Q R S T U V W X Y Z

Clutch - Electric Worry tab

ELECTRIC WORRY  by: Clutch

Tab by: Aaron Meredith & Co.

Standard Tuning: (E-A-D-G-B-e)

Some power Chord patterns may vary. I tabbed the main progression

p = pull-off
h = hammer-on
. = palm-mute (pm)
/ = slide up
\ = slide down
~ = let ring



Intro:
|-----------------------------------------------------------------|
|-----------------------------------------------------------------|
|----------3~---5-5p0---------------------------------------------|
|--3p0-5-5------------3-3/5~---3p0-3-4-5~-----5~---3--3p0---------|
|-----------------------------------------------------------------|
|-----------------------------------------6p3--------------6-3~---|

|--------------------------------------------------------------------------------|
|------------------------------------------------13-11~--------------------------|
|----------------------------------------------0----------0----------------------|
|---3-3h5-5------3~---3-3h5---------------------------------10-8~----------------|
|----------------------------------------------------------------------3--3-1----|
|------------6p3------------6~--3h6-3~~~~-------------------------------------1--|



Verse:
|----------------------------|
|----------------------------|
|----------------------------|x8
|-----5----5--5--------------|
|-----5--5-5--5---3--3-1-----|
|--3--3--3-3--3----------1---|
 pm      .             



Chorus:
|------------------------------|
|------------------------------|
|------------------------------|x5
|------------------------------|
|--3--3-1---------3--3-1-------|
|---------1--3-----------1--3--|




Harp Solo: (rhythm)
|----------------------------|
|----------------------------|
|----------------------------|x4
|-----5----5--5--------------|
|-----5--5-5--5---3--3-1-----|
|--3--3--3-3--3----------1---|
 pm      .

|----------------------------|
|----------------------------|
|-----5----5--5--------------|x2
|-----5--5-5--5---3--3-1-----|
|--3--3--3-3--3----------1---|
|----------------------------|
 pm      .

|----------------------------|     |------------|
|----------------------------|     |------------|
|----------------------------|x2   |------------|
|-----5----5--5--------------|     |--5~~~~~----|
|-----5--5-5--5---3--3-1-----|     |--5~~~~~----|
|--3--3--3-3--3----------1---|     |--3~~~~~----|
 pm      .


REPEAT INTRO:

REPEAT VERSE:

REPEAT CHORUS:



Solo:
|-----------------------------------------------------|
|-------------------3-3-3~---------------------3-3----|
|----5p3p0-3--5p3p0-3-3-3~------5p3p0-3--5p3p0-3-3----|x2
|--5-----------------------5~-5--------------------5~-|
|-----------------------------------------------------|
|-----------------------------------------------------| 

|------------------------------------------------8-----8------8\\----|
|-------13~~--13-----13----------4-4-4-4-4--/10~---10~---10~--10\----|
|---/12---------12~~----12~~--/5-5-5-5-5-5---------------------------|
|--------------------------------------------------------------------|
|--------------------------------------------------------------------|
|--------------------------------------------------------------------|

|--------------------------------------------------------------------|
|-------------------3-3-3~-------------------------------------------|
|----5p3p0-3--5p3p0-3-3-3~------5p3p0-3--5p3p0----5p3p0--------------|
|--5-----------------------5--5----------------5--------5p3p0--------|
|-------------------------------------------------------------5p3p0--|
|--------------------------------------------------------------------|

|---------------------------------|
|---------------------------------|
|---------5p3p0-------------------|
|---5p3p0-------5p3p0-------------|
|---------------------5p3p0-------|
|---------------------------3~----|



REPEAT INTRO: (w/o guitar over words)

REPEAT VERSE:

REPEAT CHORUS:


Organ solo: (rhythm)
|----------------------------|
|----------------------------|
|-----5----5--5--------------|x2
|-----5--5-5--5---3--3-1-----|
|--3--3--3-3--3----------1---|
|----------------------------|
 pm      .

|----------------------------|     |------|
|----------------------------|     |------|
|----------------------------|x2   |------|
|-----5----5--5--------------|     |--5---|
|-----5--5-5--5---3--3-1-----|     |--5---|
|--3--3--3-3--3----------1---|     |--3---|
 pm      .


DRUM BREAK:


End with:
|----------------------|
|----------------------|
|----------------------|
|--5~~~~~~~~~~~~~~-5|--|
|--5~~~~~~~~~~~~~~-5|--|
|--3~~~~~~~~~~~~~~-3|--|
Tap to rate this tab
 
# A B C D E F G H I J K L M N O P Q R S T U V W X Y Z