Song name
# A B C D E F G H I J K L M N O P Q R S T U V W X Y Z

Cramps - Fever tab

The Cramps - Fever

Tab by Bastien
To get the original key, play it one octave lower (octaver, bass/baritone guitar...)

There are some variations, but the main riff is:

e|-----------|
B|-----------|
G|---------4-|
D|-2-5-2-5---|
A|-----------|
E|-----------|

e|--------------------|
B|--------------------|
G|----------4-2-------|
D|---0-2--------5-4-2-|
A|-2------------------|
E|--------------------|

Sometimes:

e|--------------------|
B|--------------------|
G|-4--------4-2-------|
D|---0-2--------5-4-2-|
A|--------------------|
E|--------------------|

Enjoy!
Tap to rate this tab
 
# A B C D E F G H I J K L M N O P Q R S T U V W X Y Z