Song name
# A B C D E F G H I J K L M N O P Q R S T U V W X Y Z

Cypress Hill - Last Laugh tab

Artist: Cypress Hill
Song: Last laugh
Album: Till death do us part

Here are the riffs of the song, really easy.
The bass is louder than the guitar so I'm not sure but I think there is some disto 
like in the intro

Intro/verse:

e|--------------------------------------|
B|--------------------------------------|
G|--------------------------------------|
D|---------66-6/8-----------------------|
A|---------66-6/8-----------------------|
E|---------44-4/6-----------------------|


Little break in riff:
e|--------------------------------------|
B|--------------------------------------|
G|--------------------------------------|
D|----------6---88-------5----99--------|
A|----------6---66-------5----99--------|
E|----------4---66-------3----77--------|   

Not sure of the "3  77" part of this riff, I will correct it soon
Tap to rate this tab
 
# A B C D E F G H I J K L M N O P Q R S T U V W X Y Z