Song name
# A B C D E F G H I J K L M N O P Q R S T U V W X Y Z

Deftones - Bloody Cape tab

Deftones	Bloody Cape
Ab-Db-Gb-Cb-Fb-Ab-Db

Intro
|-0---0-0-0-0---0-0-0-0---0---0-0-0-0---0-0-0-0---0---0-0-0-0---0-0-0-0---0---0-0-0-0---0-0-0-0-|
|-0---0-0-0-0---0-0-0-0---0---0-0-0-0---0-0-0-0---0---0-0-0-0---0-0-0-0---0---0-0-0-0---0-0-0-0-|
|-7---7-7-7-7---7-7-7-7---7---7-7-7-7---7-7-7-7---3---3-3-3-3---3-3-3-3---3---3-3-3-3---3-3-3-3-|
|-9---9-9-9-9---9-9-9-9---9---9-9-9-9---9-9-9-9---5---5-5-5-5---5-5-5-5---5---5-5-5-5---5-5-5-5-|
|-----------------------------------------------------------------------------------------------|
|-----------------------------------------------------------------------------------------------|
|-----------------------------------------------------------------------------------------------|
				pas la 2nde fois    \______/

Refrain
|-------------------------------------------------------------|
|---------------------------------------0---0-0---0---0-0-0-0-|
|-------------------------------------------------------------|
|---------------------------------------5---5-5---5---5-5-5-5-|
|-0h4-4~--0h4-4~--0h4-4~--0h4-4~--5\4p0-----------------------|
|-0h4-4~--0h4-4~--0h4-4~--0h4-4~--5\4p0-3---3-3---3---3-3-3-3-|
|-0h2-2~--0h2-2~--0h2-2~--0h2-2~--3\2p0-----------------------|

|-------------------------------------------------------------|
|---------------------------------------0---0-0---0---0-0---0-|
|-------------------------------------------------------------|
|---------------------------------------5---5-5---5---5-5/7-7-|
|-0h4-4~--0h4-4~--0h4-4~--0h4-4~--5\4p0-----------------------|
|-0h4-4~--0h4-4~--0h4-4~--0h4-4~--5\4p0-3---3-3---3---3-3/5-5-|
|-0h2-2~--0h2-2~--0h2-2~--0h2-2~--3\2p0-----------------------|

Couplet
|-0---0-0-0-0-0---0-0-0-0-0-0-0-0-0---0-0-0-0-0---0-0-0-0-0-0-0-0-|
|-0---0-0-0-0-0---0-0-0-0-0-0-0-0-0---0-0-0-0-0---0-0-0-0-0-0-0-0-|
|-7---7-7-7-7-7---7-7-7-7-7-7-7-7-7---7-7-7-7-7---7-7-7-7-7-7-7-7-|
|-9---9-9-9-9-9---9-9-9-9-9-9-9-9-9---9-9-9-9-9---9-9-9-9-9-9-9-9-|
|-----------------------------------------------------------------|
|-----------------------------------------------------------------|
|-----------------------------------------------------------------|
                                x  changer le 7 de cet accord en 8 lors de la seconde moitié du couplet

|-0---0-0-0-0-0---0-0-0-0-0-0-0-0-0---0-0-0-0-0---0-0-0-0-0-0-0-0-|
|-0---0-0-0-0-0---0-0-0-0-0-0-0-0-0---0-0-0-0-0---0-0-0-0-0-0-0-0-|
|-3---3-3-3-3-3---3-3-3-3-3-3-3-3-3---3-3-3-3-3---3-3-3-3-3-3-3-3-|
|-5---5-5-5-5-5---5-5-5-5-5-5-5-5-5---5-5-5-5-5---5-5-5-5-5-5-5-5-|
|-----------------------------------------------------------------|
|-----------------------------------------------------------------|
|-----------------------------------------------------------------|
						      \_____________/
						     pas la dernière fois

Suite du 3e refrain
|--------------------------------|
|--------------------------------|
|--------------------------------|
|--------------------------------| 2x
|-0h4-4---0h4-4---0h4-4---0h4-4--|
|-0h4-4---0h4-4---0h4-4---0h4-4--|
|-0h2-2---0h2-2---0h2-2---0h2-2--|


Outro
|--------------------------------------------0~~~-|
|--------------------------------------------0~~~-|
|--------------------------------------------0~~~-|
|--------------------------------------------0~~~-|
|-0h4-4~--0h4-4~--0h4-4~--0h4-4~--5\4p0-0~~-------|
|-0h4-4~--0h4-4~--0h4-4~--0h4-4~--5\4p0-0~~-------|
|-0h2-2~--0h2-2~--0h2-2~--0h2-2~--3\2p0-0~~-------|

|--------------------------------|
|--------------------------------|
|--------------------------------|
|--------------------------------| 8x
|-0h4-4---0h4-4---0h4-4---0h4-4--|
|-0h4-4---0h4-4---0h4-4---0h4-4--|
|-0h2-2---0h2-2---0h2-2---0h2-2--|
Tap to rate this tab
 
# A B C D E F G H I J K L M N O P Q R S T U V W X Y Z