Song name
# A B C D E F G H I J K L M N O P Q R S T U V W X Y Z

Deftones - Mein tab

so yea i just figured out how to play mein by deftones.
i watched a video of him playing it and so i tried it.
sounds great!! and easy ;D
tuning is F#C#F#BEG#C# :D
have fun and enjoy...
btw, you guys put all the stuff together.
yea im to lazy and its 1 in the morningggg.
rikuu666/gwenudoo. ^_^

INTRO
C# |----------------------------------------------------------------------------|
G#|-----------------------------------------------------------------------------|
E  |-----8-8-8-8-8-------9-9-9-9------------------------------------------------|
B  |-----6-6-6-6-6-------7-7-7-7------------------------------------------------|
F# |-----7-7-7-7-7--------------------------------------------------------------|
C# |---------------------8-8-8-8------------------------------------------------|
F# |----------------------------------------------------------------------------|

CHORUS
C# |----------------------------------------------------------------------------|
G#|-----------------------------------------------------------------------------|
E  |--11-11-11-------6-6-6-----------5-5-5-5------------------------------------|
B  |--9--9--9--------4-4-4-----------3-3-3-3------------------------------------|
F# |--10-10-10-------5-5-5------------------------------------------------------|
C# |---------------------------------4-4-4-4------------------------------------|
F# |----------------------------------------------------------------------------|

OTHER CHORUS?
C# |----------------------------------------------------------------------------|
G#|-----------------------------------------------------------------------------|
E  |----------------------------------------------------------------------------|
B  |--------------------12-12-12-12---------------------------------------------|
F# |---5-5-5-5-4--------10-10-10-10---------------------------------------------|
C# |---5-5-5-5-4--------10-10-10-10---------------------------------------------|
F# |---5-5-5-5-4--------10-10-10-10---------------------------------------------|


CONTINUED...
C# |----------------------------------------------------------------------------|
G#|-----------------------------------------------------------------------------|
E  |----------------------------------------------------------------------------|
B  |------------------12----9-9-9-9---------------------------------------------|
F# |---5-5-5-5-4------10----7-7-7-7---------------------------------------------|
C# |---5-5-5-5-4------10----7-7-7-7---------------------------------------------|
F# |---5-5-5-5-4------10----7-7-7-7---------------------------------------------|


Then you play the chorus again...
and then the other other chorus again too..
then serj comes out of NOWHERE!
SERJS CHORUS
C# |----------------------------------------------------------------------------|
G#|-----------------------------------------------------------------------------|
E  |---4-4-4--10-10-10---13-13-13-------4-4-4--13-13-10-10----------------------|
B  |---2-2-2---8-8--8----11-11-11-------2-2-2--11-11-8-8------------------------|
F# |---3-3-3---9-9--9----12-12-12-------3-3-3--12-12-9-9------------------------|
C# |----------------------------------------------------------------------------|
F# |----------------------------------------------------------------------------|

ya get the point..
just listen to the song and play it with the right pickings and stuff..
its really easy..
im just to lazy to write it all tab after tab..it gets boring dude..
and its 1:30 alreadyyy..
good luck..
and rate if u want? cool
deftones<3 one love for chi!
Tap to rate this tab
 
# A B C D E F G H I J K L M N O P Q R S T U V W X Y Z