Song name
# A B C D E F G H I J K L M N O P Q R S T U V W X Y Z

Fall Out Boy - My Songs Know What You Did In The Dark Light Em Up tab

Fallout Boy
My Songs Know What You Did In The Dark (Light 'Em Up)
Drop D Tuning (D-A-D-G-B-e)

Intro
e|------|-------------------------|
B|------|-------------------------|
G|---2/-|-7~-7~-7~-7~-7~-7~-7~-7~-| x4
D|------|-------------------------|
A|------|-------------------------|
D|------|-------------------------|

Verse 1
e|-----------------------------|
B|-----------------------------|
G|-----------------7-7---------| x1
D|-7-7-7-7-7-7-7-7-7-7-7-7-7-7-|
A|-5-5-5-5-5-5-5-5-5-5-5-5-5-5-|
D|-----------------------------|
   * * * * * * * *     * * * *

e|-----------------------------|
B|-----------------------------|
G|-----------------3-3---------| x1
D|-3-3-3-3-3-3-3-3-3-3-3-3-3-3-|
A|-1-1-1-1-1-1-1-1-1-1-1-1-1-1-|
D|-----------------------------|
   * * * * * * * *     * * * *

Verse 2
e|---------------------------------|
B|---------------------------------|
G|---------------------------------| x1
D|-7-7-7-7-7-7-7-7-7-7-7-7-7-7-7-7-|
A|-5-5-5-5-5-5-5-5-5-5-5-5-5-5-5-5-|
D|---------------------------------|
   * * * * * * * * * * * * * * * *

e|---------------------------------|
B|---------------------------------|
G|---------------------------------| x1
D|-3-3-3-3-3-3-3-3-3-3-3-3-3-3-3-3-|
A|-1-1-1-1-1-1-1-1-1-1-1-1-1-1-1-1-|
D|---------------------------------|
   * * * * * * * * * * * * * * * *

Verse 1
e|-----------------------------|
B|-----------------------------|
G|-----------------7-7---------| x1
D|-7-7-7-7-7-7-7-7-7-7-7-7-7-7-|
A|-5-5-5-5-5-5-5-5-5-5-5-5-5-5-|
D|-----------------------------|
   * * * * * * * *     * * * *

e|-----------------------------|
B|-----------------------------|
G|-----------------3-3---------| x1
D|-3-3-3-3-3-3-3-3-3-3-3-3-3-3-|
A|-1-1-1-1-1-1-1-1-1-1-1-1-1-1-|
D|-----------------------------|
   * * * * * * * *     * * * *

Veres 2
e|---------------------------------|
B|---------------------------------|
G|---------------------------------| x1
D|-7-7-7-7-7-7-7-7-7-7-7-7-7-7-7-7-|
A|-5-5-5-5-5-5-5-5-5-5-5-5-5-5-5-5-|
D|---------------------------------|
   * * * * * * * * * * * * * * * *

e|---------------------------------|
B|---------------------------------|
G|---------------------------------| x1
D|-3-3-3-3-3-3-3-3-3-3-3-3-3-3-3-3-|
A|-1-1-1-1-1-1-1-1-1-1-1-1-1-1-1-1-|
D|---------------------------------|
   * * * * * * * * * * * * * * * *

Bridge
e|-------------------------------------------------------------|
B|-------------------------------------------------------------|
G|-------------------------------------------------------------| x1
D|-7-7-7-7-7-7-7-7-7-7-7-7-7-7-7-7-7-7-7-7-7-7-7-7-7-7-7-7-7-7-|
A|-5-5-5-5-5-5-5-5-5-5-5-5-5-5-5-5-5-5-5-5-5-5-5-5-5-5-5-5-5-5-|
D|-------------------------------------------------------------|
   * * * * * * * * * * * * * * * * * * * * * * * * * * * * * *

Chorus
e|---------------------------------------------------------|
B|---------------------------------------------------------|
G|--7--7--7--7-7--3--3--3--3-3----------------5--5--5--5-5-| x4
D|--7--7--7--7-7--3--3--3--3-3--3--3--3--3-3--5--5--5--5-5-|
A|--5--5--5--5-5--1--1--1--1-1--3--3--3--3-3--3--3--3--3-3-|
D|------------------------------3--3--3--3-3---------------|

Verse 1
e|-----------------------------|
B|-----------------------------|
G|-----------------7-7---------| x1
D|-7-7-7-7-7-7-7-7-7-7-7-7-7-7-|
A|-5-5-5-5-5-5-5-5-5-5-5-5-5-5-|
D|-----------------------------|
   * * * * * * * *     * * * *

e|-----------------------------|
B|-----------------------------|
G|-----------------3-3---------| x1
D|-3-3-3-3-3-3-3-3-3-3-3-3-3-3-|
A|-1-1-1-1-1-1-1-1-1-1-1-1-1-1-|
D|-----------------------------|
   * * * * * * * *     * * * *

Verse 2
e|---------------------------------|
B|---------------------------------|
G|---------------------------------| x1
D|-7-7-7-7-7-7-7-7-7-7-7-7-7-7-7-7-|
A|-5-5-5-5-5-5-5-5-5-5-5-5-5-5-5-5-|
D|---------------------------------|
   * * * * * * * * * * * * * * * *

e|---------------------------------|
B|---------------------------------|
G|---------------------------------| x1
D|-3-3-3-3-3-3-3-3-3-3-3-3-3-3-3-3-|
A|-1-1-1-1-1-1-1-1-1-1-1-1-1-1-1-1-|
D|---------------------------------|
   * * * * * * * * * * * * * * * *

Verse 1
e|-----------------------------|
B|-----------------------------|
G|-----------------7-7---------| x1
D|-7-7-7-7-7-7-7-7-7-7-7-7-7-7-|
A|-5-5-5-5-5-5-5-5-5-5-5-5-5-5-|
D|-----------------------------|
   * * * * * * * *     * * * *

e|-----------------------------|
B|-----------------------------|
G|-----------------------------| x1
D|-3-3-3-3-3-3-3-3-------------|
A|-1-1-1-1-1-1-1-1-------------|
D|-----------------------------|
   * * * * * * * * 

Verse 2
e|---------------------------------|
B|---------------------------------|
G|---------------------------------| x1
D|-7-7-7-7-7-7-7-7-7-7-7-7-7-7-7-7-|
A|-5-5-5-5-5-5-5-5-5-5-5-5-5-5-5-5-|
D|---------------------------------|
   * * * * * * * * * * * * * * * *

e|---------------------------------|
B|---------------------------------|
G|---------------------------------| x1
D|-3-3-3-3-3-3-3-3-3-3-3-3-3-3-3-3-|
A|-1-1-1-1-1-1-1-1-1-1-1-1-1-1-1-1-|
D|---------------------------------|
   * * * * * * * * * * * * * * * *

Bridge
e|-------------------------------------------------------------|
B|-------------------------------------------------------------|
G|-------------------------------------------------------------| x1
D|-7-7-7-7-7-7-7-7-7-7-7-7-7-7-7-7-7-7-7-7-7-7-7-7-7-7-7-7-7-7-|
A|-5-5-5-5-5-5-5-5-5-5-5-5-5-5-5-5-5-5-5-5-5-5-5-5-5-5-5-5-5-5-|
D|-------------------------------------------------------------|
   * * * * * * * * * * * * * * * * * * * * * * * * * * * * * *

Chorus
e|---------------------------------------------------------|
B|---------------------------------------------------------|
G|--7--7--7--7-7--3--3--3--3-3----------------5--5--5--5-5-| x4
D|--7--7--7--7-7--3--3--3--3-3--3--3--3--3-3--5--5--5--5-5-|
A|--5--5--5--5-5--1--1--1--1-1--3--3--3--3-3--3--3--3--3-3-|
D|------------------------------3--3--3--3-3---------------|

After the pause with all the vocals, without the guitar the chorus comes again

Chorus
e|---------------------------------------------------------|
B|---------------------------------------------------------|
G|--7--7--7--7-7--3--3--3--3-3----------------5--5--5--5-5-| x4
D|--7--7--7--7-7--3--3--3--3-3--3--3--3--3-3--5--5--5--5-5-|
A|--5--5--5--5-5--1--1--1--1-1--3--3--3--3-3--3--3--3--3-3-|
D|------------------------------3--3--3--3-3---------------|

And then the vocals fade out
Tap to rate this tab
# A B C D E F G H I J K L M N O P Q R S T U V W X Y Z