Song name
# A B C D E F G H I J K L M N O P Q R S T U V W X Y Z

Good Charlotte - Lifestyles Of The Rich & Famous tab

Grupo: Good Charlotte
Tema: Lifestyles Of The Rich And Famous
Verse
e----------------------------
b----------------------------
g---7-7----9-9-----------7-7-
d---7-7----9-9----5-5----7-7-
a---5-5----7-7----5-5----5-5-
e-----------------3-3--------
Pre-Chorus
e------------------------------------------------------------------------
b------------------------------------------------------------------------
g----4-4-4-4-4-4-4-4-------------------7-7-7-7-7-7-7-7--2-2-2-2-2-2-2-2--
d----4-4-4-4-4-4-4-4--5-5-5-5-5-5-5-5--7-7-7-7-7-7-7-7--2-2-2-2-2-2-2-2--
a----2-2-2-2-2-2-2-2--5-5-5-5-5-5-5-5--5-5-5-5-5-5-5-5--0-0-0-0-0-0-0-0--
e---------------------3-3-3-3-3-3-3-3------------------------------------
Chorus
e------------------------------------------------------------------------
b------------------------------------------------------------------------
g--7-7-7-7-7-7-7-7--9-9-9-9-9-9-9-9-------------------7-7-7-7-7-7-7-7----
d--7-7-7-7-7-7-7-7--9-9-9-9-9-9-9-9--5-5-5-5-5-5-5-5--7-7-7-7-7-7-7-7----
a--5-5-5-5-5-5-5-5--7-7-7-7-7-7-7-7--5-5-5-5-5-5-5-5--5-5-5-5-5-5-5-5----
e------------------------------------3-3-3-3-3-3-3-3---------------------
Bridge
e-5-5-5-5-5-5-5-5-5-5-5-5-5-5-5-5-
b---------------------------------
g---------------------------------
d---------------------------------
a---------------------------------
e---------------------------------
Ending
e--------------------------------------------------|---------------
b--------------------------------------------------|---------------
g--7-7-7-7-7-7-7-7--9-9-9-9-9-9-9-9----------------|---------------
d--7-7-7-7-7-7-7-7--9-9-9-9-9-9-9-9----------------|-----5-5-5-5-5-
a--5-5-5-5-5-5-5-5--7-7-7-7-7-7-7-7----------------|-----5-5-5-5-5-
e--------------------------------------------------|-----3-3-3-3-3-

Verse 2x
Pre-Chorus 2x
Chorus 2x
Verse 2x 
Pre-Chorus 2x
Chorus 2x
Bridge 1x
heavy Chorus "play it slower and sorta heavyier" 2x
chorus 2x
ending
Tap to rate this tab
# A B C D E F G H I J K L M N O P Q R S T U V W X Y Z