Song name
# A B C D E F G H I J K L M N O P Q R S T U V W X Y Z

Green Day - Stay The Night tab

Stay the Night
¡UNO!
Green Day
Standard Tuning

Hey everybody!! This is Stay the Night by Green Day from their newest album UNO!! So I 
saw it tabbed a little different, but after watching the video of them performing the 
song, I saw Billie playing this, or at least very close to this.

Intro
E|--------------------------------------------------------------------------|
B|--------------------------------------------------------------------------|
G|-----------------------14-14-12-11—11-9-11-11-11--------------------------|
D|-----12-12-12-12----------------------------------------------------------|
A|--------------------------------------------------------------------------|
E|--------------------------------------------------------------------------|

E|--------------------------------------------------------------------------|
B|--------------------------------------------------------------------------|
G|-----------------------14-14-14-------------9-----------------------------|
D|-----12-12-12-12-----------------11-11-12---------------------------------|
A|--------------------------------------------------------------------------|
E|--------------------------------------------------------------------------|

E|--------------------------------------------------------------------------|
B|--------------------------------------------------------------------------|
G|--------------14-14-14----------------------------------------------------|
D|--12-12-12-12-----------------12-12---10--9---9--11--11-12--14-14-12-11---|
A|--------------------------------------------------------------------------|
E|--------------------------------------------------------------------------|

e|--------------------------------------------------------------------------|
B|--------------------------------------------------------------------------|
G|--7--7-7-7-7-7-7----------7-----------------------------------------------|
D|--7--7-7-7-7-7-7--7--7-7--7---5--5-5-5-5-5-5--7--7-7-7-7-7-7---------(X2--|
A|--5--5-5-5-5-5-5--7--7-7--5---5--5-5-5-5-5-5--7--7-7-7-7-7-7--------------|
E|------------------5--5-5------3--3-3-3-3-3-3--5--5-5-5-5-5-5--------------|

Verse
E|--------------------------------------------------------------------------|
B|--------------------------------------------------------------------------|
G|---7-7-7-7-7-7-7-7-7-7-7-7-7-7-7-7----------------------------------------|
D|---7-7-7-7-7-7-7-7-7-7-7-7-7-7-7-7----------------------------------------|
A----5-5-5-5-5-5-5-5-5-5-5-5-5-5-5-5----------------------------------------|
E|--------------------------------------------------------------------------|
PM       ************************
       Well I ain’t got much time so I’ll get to the point

E|--------------------------------------------------------------------------|
B|--------------------------------------------------------------------------|
G|--------------------------------------------------------------------------|
D|---------5-5-5-5-5-5-5-5--7-7-7-7-7-7-7-7---------------------------------|
A|---------5-5-5-5-5-5-5-5--7-7-7-7-7-7-7-7---------------------------------|
E|---------3-3-3-3-3-3-3-3--5-5-5-5-5-5-5-5---------------------------------|
 P.M          ********************
Do you wanna share a ride and get the fuck out of this joint?

E|--------------------------------------------------------------------------|
B|--------------------------------------------------------------------------|
G|---7-7-7-7-7-7-7-7-7-7-7-7-7-7-7-7----------------------------------------|
D|---7-7-7-7-7-7-7-7-7-7-7-7-7-7-7-7----------------------------------------|
A----5-5-5-5-5-5-5-5-5-5-5-5-5-5-5-5----------------------------------------|
E|--------------------------------------------------------------------------|
PM       ************************
              I’ve got an impulse so repulsive that it burns

E|----------------------------------------------------------------------------|
B|----------------------------------------------------------------------------|
G|----------------------------------------------------------------------------|
D|---------5-5-5-5-5-5-5-5--7-7-7-7-7-7-7-7-----------------------------------|
A|---------5-5-5-5-5-5-5-5--7-7-7-7-7-7-7-7-----------------------------------|
E|---------3-3-3-3-3-3-3-3--5-5-5-5-5-5-5-5-----------------------------------|
 P.M         ******************************
         I wanna break your heat until it makes your stomach turn

Pre-Chorus
e|--------------------------------------------------------------------------|
B|--------------------------------------------------------------------------|
G|--4--4--4-4-4-----------------------7--7--7-7-7---------------------------|
D|--4--4--4-4-4--5--5-5-5-5-5-5-5--7--7--7-7-7--7--7-7-7-7-7-7-7----(X2)----|
A|--2--2--2-2-2--5--5-5-5-5-5-5-5--5--5--5-5-5--7--7-7-7-7-7-7-7------------|
E|---------------3--3-3-3-3-3-3-3---------------5--5-5-5-5-5-5-5------------|
  I got to know if you’re the one that got away
  Even though it was never meant to be

Chorus
e|--------------------------------------------------------------------------|
B|--------------------------------------------------------------------------|
G|--7--7-7-7-7-7-7------------7---------------------------------------------|
D|--7--7-7-7-7-7-7--7--7-7--7---5--5-5-5-5-5-5--7--7-7-7-7-7-7-------(X4)---|
A|--5--5-5-5-5-5-5--7--7-7--5---5--5-5-5-5-5-5--7--7-7-7-7-7-7--------------|
E|-----------------------5--5---3--3-3-3-3-3-3--5--5-5-5-5-5-5--------------|
       So say you’ll stay the night…cause we’re running out of time
       So stay the night……..I don’t wanna say good bye
Verse
E|--------------------------------------------------------------------------|
B|--------------------------------------------------------------------------|
G|---7-7-7-7-7-7-7-7-7-7-7-7-7-7-7-7----------------------------------------|
D|---7-7-7-7-7-7-7-7-7-7-7-7-7-7-7-7----------------------------------------|
A----5-5-5-5-5-5-5-5-5-5-5-5-5-5-5-5----------------------------------------|
E|--------------------------------------------------------------------------|
PM       ************************
      Well you’re so sick and tired of feeling so alone
E|--------------------------------------------------------------------------|
B|--------------------------------------------------------------------------|
G|--------------------------------------------------------------------------|
D|---------5-5-5-5-5-5-5-5--7-7-7-7-7-7-7-7---------------------------------|
A|---------5-5-5-5-5-5-5-5--7-7-7-7-7-7-7-7---------------------------------|
E|---------3-3-3-3-3-3-3-3--5-5-5-5-5-5-5-5---------------------------------|
 P.M         ******************************
  Well I don’t understand the point if you have to go home

E|--------------------------------------------------------------------------|
B|--------------------------------------------------------------------------|
G|---7-7-7-7-7-7-7-7-7-7-7-7-7-7-7-7----------------------------------------|
D|---7-7-7-7-7-7-7-7-7-7-7-7-7-7-7-7----------------------------------------|
A----5-5-5-5-5-5-5-5-5-5-5-5-5-5-5-5----------------------------------------|
E|--------------------------------------------------------------------------|
PM       ************************
              So won’t you stay and count the circles ‘round my eyes?

E|--------------------------------------------------------------------------|
B|--------------------------------------------------------------------------|
G|--------------------------------------------------------------------------|
D|---------5-5-5-5-5-5-5-5--7-7-7-7-7-7-7-7---------------------------------|
A|---------5-5-5-5-5-5-5-5--7-7-7-7-7-7-7-7---------------------------------|
E|---------3-3-3-3-3-3-3-3--5-5-5-5-5-5-5-5---------------------------------|
 P.M         ******************************
            And we can watch the stars until the sun begins to rise
Pre-Chorus
e|--------------------------------------------------------------------------|
B|--------------------------------------------------------------------------|
G|--4--4--4-4-4-----------------------7--7--7-7-7---------------------------|
D|--4--4--4-4-4--5--5-5-5-5-5-5-5--7--7--7-7-7--7--7-7-7-7-7-7-7---(X2)-----|
A|--2--2--2-2-2--5--5-5-5-5-5-5-5--5--5--5-5-5--7--7-7-7-7-7-7-7------------|
E|---------------3--3-3-3-3-3-3-3---------------5--5-5-5-5-5-5-5------------|
  I got to know if you’re the one that got away
  Even though it was never meant to be

Chorus
e|--------------------------------------------------------------------------|
B|--------------------------------------------------------------------------|
G|--7--7-7-7-7-7-7------------7---------------------------------------------|
D|--7--7-7-7-7-7-7--7--7-7--7---5--5-5-5-5-5-5--7--7-7-7-7-7-7-------(X4)---|
A|--5--5-5-5-5-5-5--7--7-7--5---5--5-5-5-5-5-5--7--7-7-7-7-7-7--------------|
E|-----------------------5--5---3--3-3-3-3-3-3--5--5-5-5-5-5-5--------------|
       So say you’ll stay the night…cause we’re running out of time
       So stay the night……..I don’t wanna say good bye


Solo (I don’t have a solo tabbed out yet, but once I get a chance, I’ll try and upload it)

Play the Chorus during the solo

Pre-Chorus
e|--------------------------------------------------------------------------|
B|--------------------------------------------------------------------------|
G|--4--4--4-4-4-----------------------7--7--7-7-7---------------------------|
D|--4--4--4-4-4--5--5-5-5-5-5-5-5--7--7--7-7-7--7--7-7-7-7-7-7-7---(X2)-----|
A|--2--2--2-2-2--5--5-5-5-5-5-5-5--5--5--5-5-5--7--7-7-7-7-7-7-7------------|
E|---------------3--3-3-3-3-3-3-3---------------5--5-5-5-5-5-5-5------------|
  I got to know if you’re the one that got away
  Even though it was never meant to be

e|--------------------------------------------------------------------------|
B|--------------------------------------------------------------------------|
G|--7--7-7-7-7-7-7------------7---------------------------------------------|
D|--7--7-7-7-7-7-7--7--7-7--7---5--5-5-5-5-5-5--7--7-7-7-7-7-7-------(X4)---|
A|--5--5-5-5-5-5-5--7--7-7--5---5--5-5-5-5-5-5--7--7-7-7-7-7-7--------------|
E|-----------------------5--5---3--3-3-3-3-3-3--5--5-5-5-5-5-5--------------|
       So say you’ll stay the night…cause we’re running out of time
       So stay the night……..I don’t wanna say good bye


Outro
E|--------------------------------------------------------------------------|
B|--------------------------------------------------------------------------|
G|-----------------------14-14-12-11—11-9-11-11-11--------------------------|
D|-----12-12-12-12----------------------------------------------------------|
A|--------------------------------------------------------------------------|
E|--------------------------------------------------------------------------|

E|--------------------------------------------------------------------------|
B|--------------------------------------------------------------------------|
G|-----------------------14-14-14-------------9-----------------------------|
D|-----12-12-12-12-----------------11-11-12---------------------------------|
A|--------------------------------------------------------------------------|
E|--------------------------------------------------------------------------|

E|--------------------------------------------------------------------------|
B|--------------------------------------------------------------------------|
G|-----------------------14-14-14------------------------------------7-7-7-7|
D|-----12-12-12-12---------------12-12---10--9---9--11--11-12--------7-7-7-7|
A|-------------------------------------------------------------------5-5-5-5|
E|--------------------------------------------------------------------------|

The song ends with Billie and Jason playing a D power chord over and over again until 
the final time where you strum it once.

Thanks and rate my tab!

************************************

| /   slide up
| \   slide down
| h   hammer-on
| p   pull-off
| ~   vibrato
| +   harmonic
| x   Mute note
| b   Bend
| pb  Pre-bend
| br  Bend release
| pbr Pre-bend release
| brb Bend release bend

************************************
Tap to rate this tab
 
# A B C D E F G H I J K L M N O P Q R S T U V W X Y Z