Song name
# A B C D E F G H I J K L M N O P Q R S T U V W X Y Z

Hard-ons - There Was A Time tab

Artist - Hard-Ons
Song - There Was A Time

tabbed by shanE
email - random.hero___@hotmail.com



Verse.

|------------|
|------------|
|-----7--5---|
|--5--7--5---|
|--5--5--3---|
|--3---------|

Pre-Chorus.

|-----------|
|-----------|
|--5--7-----|
|--5--7-----|
|--3--5-----|
|-----------|

Chorus.
|-----------------|
|-----------------|
|--------11--9----|
|-----9--11--9----|
|-----9--9---7----|
|-----7-----------|


Post-Chorus.
|-----------|
|-----------|
|--9--11----|
|--9--11----|
|--7--9-----|
|-----------|


Ending.

|-----------|
|-----------|
|--7--------|
|--7--5-----|
|--5--5-----|
|-----3-----|
Tap to rate this tab
# A B C D E F G H I J K L M N O P Q R S T U V W X Y Z