Song name
# A B C D E F G H I J K L M N O P Q R S T U V W X Y Z

Hard-ons - All Set To Go tab

Artist - Hard-Ons
Song - All Set To Go

tabbed by shanE
email - random.hero___@hotmail.com

All Set To Go

|---------------------------------------------|
|---------------------------------------------|
|---------------------------------------------|
|------------------------------4-0-4--0-4-2-4-|
|--------4-0-4--0-4-2-4---5-5-----------------|
|----5-5--------------------------------------|


|---------------------------------------|
|---------------------------------------|
|----------7----------------------------|
|-----7----7----------------------------|
|-----7----5----------------------------|
|-----5---------------------------------|
Tap to rate this tab
# A B C D E F G H I J K L M N O P Q R S T U V W X Y Z