Song name
# A B C D E F G H I J K L M N O P Q R S T U V W X Y Z

Hard-ons - Busted tab

Artist - Hard-Ons
Song - Busted

tabbed by shanE
email - random.hero___@hotmail.com

Busted

|------------|
|------------|
|------------|
|-7--6--5--4-|
|-5--4--3--2-|
|------------|
              
 

|------------|
|------------|
|------------|
|--7--6--5--4|
|--5--4--3--2|
|------------|

|.....PM.....|

|-------------------|
|-------------------|
|-------------------|
|-------------------|
|----7--5-4-7-9-----|
|----5--3-2-5-7-----|
|-------------------|
Tap to rate this tab
# A B C D E F G H I J K L M N O P Q R S T U V W X Y Z