Song name
# A B C D E F G H I J K L M N O P Q R S T U V W X Y Z

Hard-ons - Stop Crying tab

Help us improve GuitareTab! Take a short survey!
Artist - Hard-Ons
Song - Stop Crying

tabbed by shanE
email - random.hero___@hotmail.com

|---------------------------|
|---------------------------|
|---------------------------|
|--------7-7-7---------5-5-5|
|-5-5-5--5-5-5--2-2-2--3-3-3|
|-3-3-3---------0-0-0-------|
.............pm..............

|---------------------|
|---------------------|
|---------------------|
|---------------5-5-5-|
|-5-5-5--7-7-7--3-3-3-|
|-3-3-3--5-5-5--------|

|-------|
|-------|
|--5----|
|--5----|
|--3----|
|-------|

|----------------------|
|---5---6---8---6-5h6-5|
|-5---5---5---5--------|
|----------------------|
|----------------------|
|----------------------|

|--------------------------|
|-------------6-6-6-5-5-5--|
|-5-5-5-7-7-7--------------|
|--------------------------|
|--------------------------|
|--------------------------|

|--------------------------|
|-------------6-6-6-8-8-8--|
|-5-5-5-7-7-7--------------|
|--------------------------|
|--------------------------|
|--------------------------|

|----------------------|
|---5---6---8---6-5h6-5|
|-5---5---5---5--------|
|----------------------|
|----------------------|
|----------------------|
Related for Stop Crying tab