Guitaretab - guitar tabs
Song name
# A B C D E F G H I J K L M N O P Q R S T U V W X Y Z

Hard-ons - What Would Stiv Bators Do tab

Artist: Hard-Ons
Song - What Would Stiv Bators Do

tabbed by shanE
email - random.hero___@hotmail.com

|---------------|
|---------------|
|---------------|
|---------------|
|-5-5-5-5-5-5-5-|
|-3-3-3-3-3-3-3-|

.......pm........
|----------------------------------------|
|----------------------------------------|
|-12---14-16-12-12-/-14-19--19-/--21--16-|
|--x----x--x--x--x-/--x--x--x--/---x---x-|
|-10---12-14-10-10-/-12-17--17-/--19--14-|
|----------------------------------------|

|------------------------------------|
|------------------------------------|
|--------------------------7-7-7-7---|
|--5-5-5-5-4-4-4-4-2-2-2-2-7-7-7-7---|
|--5-5-5-5-5-5-5-5-2-2-2-2-5-5-5-5---|
|--3-3-3-3-2-2-2-2-0-0-0-0-----------|

|---------------|
|---------------|
|---------------|
|---------------|
|-10-10-10-10-10|
|-8--8--8--8--8-|

.......pm........

|---------------|
|---------------|
|---------------|
|---------------|
|-5-5-5-5-5-5-5-|
|-3-3-3-3-3-3-3-|

.......pm........
[ Tab from: http://www.guitaretab.com/h/hard-ons/94359.html ]
|----------------------------------------|
|----------------------------------------|
|-12---14-16-12-12-/-14-19--19-/--21--16-|
|--x----x--x--x--x-/--x--x--x--/---x---x-|
|-10---12-14-10-10-/-12-17--17-/--19--14-|
|----------------------------------------|

|------------------------------------|
|------------------------------------|
|--------------------------7-7-7-7---|
|--5-5-5-5-4-4-4-4-2-2-2-2-7-7-7-7---|
|--5-5-5-5-5-5-5-5-2-2-2-2-5-5-5-5---|
|--3-3-3-3-2-2-2-2-0-0-0-0-----------|

|---------------|
|---------------|
|---------------|
|---------------|
|-10-10-10-10-10|
|-8--8--8--8--8-|

.......pm........

|------------------------------------|
|------------------------------------|
|--------------------------7-7-7-7---|
|--5-5-5-5-4-4-4-4-2-2-2-2-7-7-7-7---|
|--5-5-5-5-5-5-5-5-2-2-2-2-5-5-5-5---|
|--3-3-3-3-2-2-2-2-0-0-0-0-----------|

|---------------|
|---------------|
|---------------|
|---------------|
|-10-10-10-10-10|
|-8--8--8--8--8-|

.......pm........

|---------------|
|---------------|
|---------------|
|---------------|
|-5-5-5-5-5-5-5-|
|-3-3-3-3-3-3-3-|

.......pm........

|----|
|----|
|----|
|----|
|-5--|
|-3--|
Related for What Would Stiv Bators Do tab
Advertisement will be closed in 10 seconds