Song name
# A B C D E F G H I J K L M N O P Q R S T U V W X Y Z

Kyuss - Day One tab

-------------------------------------------------------------------------------
                                DAY ONE - Kyuss
-------------------------------------------------------------------------------

Tabbed by: brian_s
Email: branimir.sremec@kc.t-com.hr



INTRO: E C5   2x


VERSE 1:
E                 C5
Don't be sad for what will never be 
Be glad you didn't have to see 
This time became a part of me 
And now this burning memory 


C---------- PLAY 3x -------|-------|
G--------------------------|-------|
D#--4--4--4--4-4-4/5-5-5---|---7---|
A#--4--4--4--4-4-4/5-5-5---|---7---|
F---2--2--2--2-2-2/3-3-3---|---5---|
C--------------------------|-------|


VERSE 2:
The sun will break the night till dawn 
And then we'll tell some tales again 
And when the time has come and gone 


C-------------------------------|
G-------------------------------|
D#--4--4--4--4-4-4/5-5-5----7---|
A#--4--4--4--4-4-4/5-5-5----7---|
F---2--2--2--2-2-2/3-3-3----5---|
C-------------------------------|


VERSE 3:
The wind will carry on and on
The wind will carry on and on





/   =  slide
Tap to rate this tab
# A B C D E F G H I J K L M N O P Q R S T U V W X Y Z