Song name
# A B C D E F G H I J K L M N O P Q R S T U V W X Y Z

Lady Of The Sunshine - Daisy Chain tab

Help us improve GuitareTab! Take a short survey!
-------------------------------------------------------------------------------
			     daisy chain - lady of the sunshine
-------------------------------------------------------------------------------
Tabbed by:kento123
Email:kento2107@hotmail.com

yeh this is a pretty easy song i'e onlu worked out the chords for the verse and
the chorus let me know if u like this cheers


Tuning:
intro
e|---0--0--0--0--0--0--0--0--------0--0--0--0--0--0--0--0--|
B|---5--5--5--5--5--5--5--5--------0--0--0--0--0--0--0--0--|
G|---6--6--6--6--6--6--6--6--------9--9--9--9--9--9--9--9--|
D|---6--6--6--6--6--6--6--6--------9--9--9--9--9--9--9--9--|
A|---4--4--4--4--4--4--4--4--------7--7--7--7--7--7--7--7--|
E|---------------------------------------------------------|
same thing for the verse....just repeat that


chorus
e|-----0--0--0--0--0--0--0--0--0--x--x--x--x--x--x--x--x--x--0--0--0--0--0--|
B|-----5--5--5--5--5--5--5--5--5--x--x--x--x--x--x--x--x--x--0--0--0--0--0--|
G|-----6--6--6--6--6--6--6--6--6--8--8--8--8--8--8--8--8--8--9--9--9--9--9--|
D|-----6--6--6--6--6--6--6--6--6--x--x--x--x--x--x--x--x--x--9--9--9--9--9--|
A|-----4--4--4--4--4--4--4--4--4 -6--6--6--6--6--6--6--6--6--7--7--7--7--7--|
E|-----0--0--0--0--0--0--0--0--0--0--0--0--0--0--0--0--0--0--0--0--0--0--0--|

e|--0--0--0--0--0--0--0--0--0-----------------------------------------------------------|
B|--0--0--0--0--0--0--0--0--0-----------------------------------------------------------|
G|--9--9--9--9--9--9--9--9--9-----------------------------------------------------------|
D|--9--9--9--9--9--9--9--9--9-----------------------------------------------------------|
A|--7--7--7--7--7--7--7--7--7-----------------------------------------------------------|
E|--------------------------------------------------------------------------------------|


| /  slide up
| \  slide down
| h  hammer-on
| p  pull-off
| ~  vibrato
| +  harmonic
| x  Mute note
===============================================================================
Related for Daisy Chain tab